Song name
# A B C D E F G H I J K L M N O P Q R S T U V W X Y Z

Brand New Sin - Running Alone tab

Another great song by Brand New Sin, listen for timing...
everything's right i think, some stuff repeats multiple times
but its a pretty simple song. Drop D tuning.

Main Intro part and Verse:
E-------------------------------------------|
B-------------------------------------------|
G-------7-------7-------7----------------7--|
D--33-0-7--33-0-7--33-0-7--3-5-3-0-3-5-0-7--|
A--33-0-5--33-0-5--33-0-5--3-5-3-0-3-5-0-5--|
D--33-0----33-0----33-0----3-5-3-0-3-5-0----|

Pre Chorus:
Cmajor
E--0---------------------|
B--1---------------------|
G--0-------7-------------|
D--2--33-0-7--333-5-3-0--|  2x
A--3--33-0-5--333-5-3-0--|
D--x--33-0----333-5-3-0--|

Chorus:
E-------------------|
B-------------------|
G-------------------|
D--0--3--5--8-3-----|
A--0--3--5--8-3-----|
D--0--3--5--8-3-----|

Bridge:
E-------------------|
B-------------------|
G-------------------|
D--666-0-xxx-3-5----|
A--666-0-xxx-3-5----|
D--666-0-xxx-3-5----|
Tap to rate this tab
 
# A B C D E F G H I J K L M N O P Q R S T U V W X Y Z