Song name
# A B C D E F G H I J K L M N O P Q R S T U V W X Y Z

Brand New - Brickhouse tab

-------------------------------------------------------------------------------
			     BRICKHOUSE - BRAND NEW
-------------------------------------------------------------------------------
Tabbed by: Jward
Email: jward93@gmail.com
 
    My 1st tab by the way

Tuning: standard

    VERSE 
               Repeat this throughout the entire verse.
e|---------------------------------------------------------------------------|
B|---------------------------------------------------------------------------|
G|---------------------------------------------------------------------------|
D|----------5-----5-----7-----7-----5-----5-----5-----5----------------------|
A|-----5h7-----7-----7-----7-----7-----7-----5-----5-------------------------|
E|---------------------------------------------------------------------------|

    CHORUS               Play this twice.     

e|---------------------------------------------------------------------------|
B|---------------------------------------------------------------------------|
G|---------0------------0-----------0-----------0----------------------------|
D|------5-----5------5-----5-----5-----5-----5-----5-------------------------|
A|---3------------3-----------3-----------3----------------------------------|
E|---------------------------------------------------------------------------|

    BRIDGE: Begins right after "Tied her up and laid her on the train tracks"

e|---------------------------------------------------------------------------|
B|---------------------------------------------------------------------------|
G|-----------0----------[------0-------]-------------------------------------|
D|--------5-----5-------[---5-----5----]--play-what's-in-the-box-4-times-----|
A|---3h5-----------5h7--[3-------------]-------------------------------------|
E|---------------------------------------------------------------------------|

     THE END

| /  slide up
| \  slide down
| h  hammer-on
| p  pull-off
| ~  vibrato
| +  harmonic
| x  Mute note
===============================================================================
Tap to rate this tab
# A B C D E F G H I J K L M N O P Q R S T U V W X Y Z