Guitaretab - guitar tabs
Song name
# A B C D E F G H I J K L M N O P Q R S T U V W X Y Z

Brand New - The Quiet Things tab

Band: Brand New---------

Song: The Quiet Thing That No One Ever Knows---------

By far my most favorite song by Brand New and one of my top favorite songs of all time.
And it's about.....pretty much correct. Unless there are typos, and if so email me. It's 
first tab ever, so enjoy!

-----xxdanishxx_cowboy@hotmail.com-----

-x-x-x-x-x-x-x-x-x-x-x-x-x-x-x-x-x-x-x-x-x-x-x-x-x-x-x-x-x-x-x-x-x-x-x-x-x-x

Intro-

*My fingers canít reach far enough to play the whole clean part all on one guitar.
So if yours doesnít either you can find a good friend of yours to to play the lower part*

Gtr 1: Clean
e |---------------------------------------------------------------------------------------------|
b |---------------------------------------------------------------------------------------------|
g |---------------------------------------------------------------------------------------------|
d |---------------------------------------------------------------------------------------------|
a |-----------------------------------------------2---------------------4-----------------------|
d |---4---------------------1-------------------------------------------------------------------|

Gtr 2: Clean
e |-----------------------------------------------------------------------------------------------|
b |--------7p-6--6---------------7p-6-----------------7p-6--6---------------7p-6--6------7s-9-9---|
g |-------------6--6-----------------6-8-6----------------6--6----------------6------6------------|
d |-----------------------------------------------------------------------------------------------|
a |-----------------------------------------------------------------------------------------------|
d |-----------------------------------------------------------------------------------------------|

Gtr 1: Distorted
e |--------------------------------------------------------------------|
b |--------------------------------------------------------------------|
g |--------------------------------------------------------------------|
d |--4-4-4-4-4-4-4-4-4-4-4-4-4-4-4-4-1-1-1-1-1-1-1-1-1-1-1-1-1-1-1-1---|
a |--4-4-4-4-4-4-4-4-4-4-4-4-4-4-4-4-1-1-1-1-1-1-1-1-1-1-1-1-1-1-1-1---|
d |--4-4-4-4-4-4-4-4-4-4-4-4-4-4-4-4-1-1-1-1-1-1-1-1-1-1-1-1-1-1-1-1---|

Gtr 2: Distorted
e |----------9---------------9----------------9---------------9---------|
b |--6-7-6-7---7-6-7-6-7-6-7---7-6-7--6-7-6-7---7-6-7-6-7-6-7---7-6-7---|
g |---------------------------------------------------------------------|
d |---------------------------------------------------------------------|
a |---------------------------------------------------------------------|
d |---------------------------------------------------------------------|

Gtr 1:
e |------------------------------------------------------------------------------------|
b |------------------------------------------------------------------------------------|
g |------------------------------------------------------------------------------------|
d |--9-9-9-9-9-9-9-9-9-9-9-9-9-9-9-9-11-11-11-11-11-11-11-11-11-11-11-11-11-11-11-11---|
a |--9-9-9-9-9-9-9-9-9-9-9-9-9-9-9-9-11-11-11-11-11-11-11-11-11-11-11-11-11-11-11-11---|
d |--9-9-9-9-9-9-9-9-9-9-9-9-9-9-9-9-11-11-11-11-11-11-11-11-11-11-11-11-11-11-11-11---|

Gtr 2:
e |--6-7-6-7---7-6-7-6-7-6-7---7-6-7----------9---------------9---------|
b |----------7---------------7--------6-7-6-7---7-6-7-6-7-6-7---7-6-7---|
g |---------------------------------------------------------------------|
d |---------------------------------------------------------------------|
a |---------------------------------------------------------------------|
d |---------------------------------------------------------------------|

Gtr 1:
e |--------------------------------------------------------------------|
b |--------------------------------------------------------------------|
g |--------------------------------------------------------------------|
d |--4-4-4-4-4-4-4-4-4-4-4-4-4-4-4-4-1-1-1-1-1-1-1-1-1-1-1-1-1-1-1-1---|
a |--4-4-4-4-4-4-4-4-4-4-4-4-4-4-4-4-1-1-1-1-1-1-1-1-1-1-1-1-1-1-1-1---|
d |--4-4-4-4-4-4-4-4-4-4-4-4-4-4-4-4-1-1-1-1-1-1-1-1-1-1-1-1-1-1-1-1---|

Gtr 2:
e |----------9---------------9--------6-7-6-7---7-6-7-6-7-6-7---7-6-7---|
b |--6-7-6-7---7-6-7-6-7-6-7---7-6-7----------7---------------7---------|
g |---------------------------------------------------------------------|
d |---------------------------------------------------------------------|
a |---------------------------------------------------------------------|
d |---------------------------------------------------------------------|

Gtr 1:
e |------------------------------------------------------------------------------------|
b |------------------------------------------------------------------------------------|
g |------------------------------------------------------------------------------------|
d |--9-9-9-9-9-9-9-9-9-9-9-9-9-9-9-9-11-11-11-11-11-11-11-11-11-11-11-11-11-11-11-11---|
a |--9-9-9-9-9-9-9-9-9-9-9-9-9-9-9-9-11-11-11-11-11-11-11-11-11-11-11-11-11-11-11-11---|
d |--9-9-9-9-9-9-9-9-9-9-9-9-9-9-9-9-11-11-11-11-11-11-11-11-11-11-11-11-11-11-11-11---|

Gtr 2:
e |----------9---------------9--------6-7-6-7---7-6-7-6-7-6-7---7-6-7---|
b |--6-7-6-7---7-6-7-6-7-6-7---7-6-7----------7---------------7---------|
g |---------------------------------------------------------------------|
d |---------------------------------------------------------------------|
a |---------------------------------------------------------------------|
d |---------------------------------------------------------------------|

Verse 1-

Gtr 1: Palm Mute
e |---------------------------------------------------------------------------------------|
b |---------------------------------------------------------------------------------------|
g |---------------------------------------------------------------------------------------|
d |--4--4----12s-4-4-4-4-4-4-4-4-4-4-4-4-4-4-4-4-1-1-1-1-1-1-1-1-1-1-1-1-1-1-1-1--|
a |--4--4----12s-4-4-4-4-4-4-4-4-4-4-4-4-4-4-4-4-1-1-1-1-1-1-1-1-1-1-1-1-1-1-1-1--|
d |--4--4----12s-4-4-4-4-4-4-4-4-4-4-4-4-4-4-4-4-1-1-1-1-1-1-1-1-1-1-1-1-1-1-1-1--|

e |------------------------------------------------------------------------------------|
b |------------------------------------------------------------------------------------|
g |------------------------------------------------------------------------------------|
d |--9-9-9-9-9-9-9-9-9-9-9-9-9-9-9-9-11-11-11-11-11-11-11-11-11-11-11-11-11-11-11-11---|
a |--9-9-9-9-9-9-9-9-9-9-9-9-9-9-9-9-11-11-11-11-11-11-11-11-11-11-11-11-11-11-11-11---|
d |--9-9-9-9-9-9-9-9-9-9-9-9-9-9-9-9-11-11-11-11-11-11-11-11-11-11-11-11-11-11-11-11---|

e |--------------------------------------------------------------------|
b |--------------------------------------------------------------------|
g |--------------------------------------------------------------------|
d |--4-4-4-4-4-4-4-4-4-4-4-4-4-4-4-4-1-1-1-1-1-1-1-1-1-1-1-1-1-1-1-1---|
a |--4-4-4-4-4-4-4-4-4-4-4-4-4-4-4-4-1-1-1-1-1-1-1-1-1-1-1-1-1-1-1-1---|
d |--4-4-4-4-4-4-4-4-4-4-4-4-4-4-4-4-1-1-1-1-1-1-1-1-1-1-1-1-1-1-1-1---|

Gtr 2: Distorted
e |------------------------------------------------------------------|
b |------------------------------------------------------------------|
g |------------------------------------------------------------------|
d |---------------4h-6-6s-8-8p-6--------------------4h-6-6s-8-8p-6---|
a |---------------4----4s-6-6-----------------------4----4s-6-6------|
d |------------------------------------------------------------------|

Gtr 1: Slowly let off plam mute
e |------------------------------------------------------------------------------------|
b |------------------------------------------------------------------------------------|
g |------------------------------------------------------------------------------------|
d |--9-9-9-9-9-9-9-9-9-9-9-9-9-9-9-9-11-11-11-11-11-11-11-11-11-11-11-11-11-11-11-11---|
a |--9-9-9-9-9-9-9-9-9-9-9-9-9-9-9-9-11-11-11-11-11-11-11-11-11-11-11-11-11-11-11-11---|
d |--9-9-9-9-9-9-9-9-9-9-9-9-9-9-9-9-11-11-11-11-11-11-11-11-11-11-11-11-11-11-11-11---|

Gtr 2:
e |-------------------------------------------------------------------------|
b |-------------------------------------------------------------------------|
g |-------------------------------------------------------------------------|
d |---------------4h-6-6s-8-8p-6---------------------------4h-6-6s-8-8p-6---|
a |---------------4----4s-6-6------------------------------4----4s-6-6------|
d |-------------------------------------------------------------------------|

Chorus-

Gtr 1: Distorted
e |--------------------------------------------------------------------|
b |--------------------------------------------------------------------|
g |--------------------------------------------------------------------|
d |--4-4-4-4-4-4-4-4-4-4-4-4-4-4-4-4-1-1-1-1-1-1-1-1-1-1-1-1-1-1-1-1---|
a |--4-4-4-4-4-4-4-4-4-4-4-4-4-4-4-4-1-1-1-1-1-1-1-1-1-1-1-1-1-1-1-1---|
d |--4-4-4-4-4-4-4-4-4-4-4-4-4-4-4-4-1-1-1-1-1-1-1-1-1-1-1-1-1-1-1-1---|

Gtr 2: Distorted
e |----------9---------------9----------------9---------------9---------|
b |--6-7-6-7---7-6-7-6-7-6-7---7-6-7--6-7-6-7---7-6-7-6-7-6-7---7-6-7---|
g |---------------------------------------------------------------------|
d |---------------------------------------------------------------------|
a |---------------------------------------------------------------------|
d |---------------------------------------------------------------------|

Gtr 1:
e |------------------------------------------------------------------------------------|
b |------------------------------------------------------------------------------------|
g |------------------------------------------------------------------------------------|
d |--9-9-9-9-9-9-9-9-9-9-9-9-9-9-9-9-11-11-11-11-11-11-11-11-11-11-11-11-11-11-11-11---|
a |--9-9-9-9-9-9-9-9-9-9-9-9-9-9-9-9-11-11-11-11-11-11-11-11-11-11-11-11-11-11-11-11---|
d |--9-9-9-9-9-9-9-9-9-9-9-9-9-9-9-9-11-11-11-11-11-11-11-11-11-11-11-11-11-11-11-11---|

Gtr 2:
e |--6-7-6-7---7-6-7-6-7-6-7---7-6-7----------9---------------9---------|
b |----------7---------------7--------6-7-6-7---7-6-7-6-7-6-7---7-6-7---|
g |---------------------------------------------------------------------|
d |---------------------------------------------------------------------|
a |---------------------------------------------------------------------|
d |---------------------------------------------------------------------|

Gtr 1:
e |--------------------------------------------------------------------|
b |--------------------------------------------------------------------|
g |--------------------------------------------------------------------|
d |--4-4-4-4-4-4-4-4-4-4-4-4-4-4-4-4-1-1-1-1-1-1-1-1-1-1-1-1-1-1-1-1---|
a |--4-4-4-4-4-4-4-4-4-4-4-4-4-4-4-4-1-1-1-1-1-1-1-1-1-1-1-1-1-1-1-1---|
d |--4-4-4-4-4-4-4-4-4-4-4-4-4-4-4-4-1-1-1-1-1-1-1-1-1-1-1-1-1-1-1-1---|

Gtr 2:
e |----------9---------------9--------6-7-6-7---7-6-7-6-7-6-7---7-6-7---|
b |--6-7-6-7---7-6-7-6-7-6-7---7-6-7----------7---------------7---------|
g |---------------------------------------------------------------------|
d |---------------------------------------------------------------------|
a |---------------------------------------------------------------------|
d |---------------------------------------------------------------------|

Gtr 1:
e |------------------------------------------------------------------------------------|
b |------------------------------------------------------------------------------------|
g |------------------------------------------------------------------------------------|
d |--9-9-9-9-9-9-9-9-9-9-9-9-9-9-9-9-11-11-11-11-11-11-11-11-11-11-11-11-11-11-11-11---|
a |--9-9-9-9-9-9-9-9-9-9-9-9-9-9-9-9-11-11-11-11-11-11-11-11-11-11-11-11-11-11-11-11---|
d |--9-9-9-9-9-9-9-9-9-9-9-9-9-9-9-9-11-11-11-11-11-11-11-11-11-11-11-11-11-11-11-11---|

Gtr 2:
e |----------9---------------9--------6-7-6-7---7-6-7-6-7-6-7---7-6-7---|
b |--6-7-6-7---7-6-7-6-7-6-7---7-6-7----------7---------------7---------|
g |---------------------------------------------------------------------|
d |---------------------------------------------------------------------|
a |---------------------------------------------------------------------|
d |---------------------------------------------------------------------|


Verse 2-

Gtr 1: Palm Mute
e |---------------------------------------------------------------------------------------|
b |---------------------------------------------------------------------------------------|
g |---------------------------------------------------------------------------------------|
d |--4--4----12s-4-4-4-4-4-4-4-4-4-4-4-4-4-4-4-4-1-1-1-1-1-1-1-1-1-1-1-1-1-1-1-1--|
a |--4--4----12s-4-4-4-4-4-4-4-4-4-4-4-4-4-4-4-4-1-1-1-1-1-1-1-1-1-1-1-1-1-1-1-1--|
d |--4--4----12s-4-4-4-4-4-4-4-4-4-4-4-4-4-4-4-4-1-1-1-1-1-1-1-1-1-1-1-1-1-1-1-1--|

e |------------------------------------------------------------------------------------|
b |------------------------------------------------------------------------------------|
g |------------------------------------------------------------------------------------|
d |--9-9-9-9-9-9-9-9-9-9-9-9-9-9-9-9-11-11-11-11-11-11-11-11-11-11-11-11-11-11-11-11---|
a |--9-9-9-9-9-9-9-9-9-9-9-9-9-9-9-9-11-11-11-11-11-11-11-11-11-11-11-11-11-11-11-11---|
d |--9-9-9-9-9-9-9-9-9-9-9-9-9-9-9-9-11-11-11-11-11-11-11-11-11-11-11-11-11-11-11-11---|

e |--------------------------------------------------------------------|
b |--------------------------------------------------------------------|
g |--------------------------------------------------------------------|
d |--4-4-4-4-4-4-4-4-4-4-4-4-4-4-4-4-1-1-1-1-1-1-1-1-1-1-1-1-1-1-1-1---|
a |--4-4-4-4-4-4-4-4-4-4-4-4-4-4-4-4-1-1-1-1-1-1-1-1-1-1-1-1-1-1-1-1---|
d |--4-4-4-4-4-4-4-4-4-4-4-4-4-4-4-4-1-1-1-1-1-1-1-1-1-1-1-1-1-1-1-1---|

Gtr 2: Distorted
e |--------------------------------------------------------------------|
b |--------------------------------------------------------------------|
g |--------------------------------------------------------------------|
d |---------------4h-6-6s-8-8p-6----------------------4h-6-6s-8-8p-6---|
a |---------------4----4s-6-6-------------------------4----4s-6-6------|
d |--------------------------------------------------------------------|

Gtr 1: Slowly let off plam mute
e |------------------------------------------------------------------------------------|
b |------------------------------------------------------------------------------------|
g |------------------------------------------------------------------------------------|
d |--9-9-9-9-9-9-9-9-9-9-9-9-9-9-9-9-11-11-11-11-11-11-11-11-11-11-11-11-11-11-11-11---|
a |--9-9-9-9-9-9-9-9-9-9-9-9-9-9-9-9-11-11-11-11-11-11-11-11-11-11-11-11-11-11-11-11---|
d |--9-9-9-9-9-9-9-9-9-9-9-9-9-9-9-9-11-11-11-11-11-11-11-11-11-11-11-11-11-11-11-11---|

Gtr 2:
e |-------------------------------------------------------------------------|
b |-------------------------------------------------------------------------|
g |-------------------------------------------------------------------------|
d |---------------4h-6-6s-8-8p-6---------------------------4h-6-6s-8-8p-6---|
a |---------------4----4s-6-6------------------------------4----4s-6-6------|
d |-------------------------------------------------------------------------|

Chorus-

Gtr 1: Distorted
e |--------------------------------------------------------------------|
b |--------------------------------------------------------------------|
g |--------------------------------------------------------------------|
d |--4-4-4-4-4-4-4-4-4-4-4-4-4-4-4-4-1-1-1-1-1-1-1-1-1-1-1-1-1-1-1-1---|
a |--4-4-4-4-4-4-4-4-4-4-4-4-4-4-4-4-1-1-1-1-1-1-1-1-1-1-1-1-1-1-1-1---|
d |--4-4-4-4-4-4-4-4-4-4-4-4-4-4-4-4-1-1-1-1-1-1-1-1-1-1-1-1-1-1-1-1---|
[ Tab from: http://www.guitaretab.com/b/brand-new/118117.html ]
Gtr 2: Distorted
e |----------9---------------9----------------9---------------9---------|
b |--6-7-6-7---7-6-7-6-7-6-7---7-6-7--6-7-6-7---7-6-7-6-7-6-7---7-6-7---|
g |---------------------------------------------------------------------|
d |---------------------------------------------------------------------|
a |---------------------------------------------------------------------|
d |---------------------------------------------------------------------|

Gtr 1:
e |------------------------------------------------------------------------------------|
b |------------------------------------------------------------------------------------|
g |------------------------------------------------------------------------------------|
d |--9-9-9-9-9-9-9-9-9-9-9-9-9-9-9-9-11-11-11-11-11-11-11-11-11-11-11-11-11-11-11-11---|
a |--9-9-9-9-9-9-9-9-9-9-9-9-9-9-9-9-11-11-11-11-11-11-11-11-11-11-11-11-11-11-11-11---|
d |--9-9-9-9-9-9-9-9-9-9-9-9-9-9-9-9-11-11-11-11-11-11-11-11-11-11-11-11-11-11-11-11---|

Gtr 2:
e |--6-7-6-7---7-6-7-6-7-6-7---7-6-7----------9---------------9---------|
b |----------7---------------7--------6-7-6-7---7-6-7-6-7-6-7---7-6-7---|
g |---------------------------------------------------------------------|
d |---------------------------------------------------------------------|
a |---------------------------------------------------------------------|
d |---------------------------------------------------------------------|

Gtr 1:
e |--------------------------------------------------------------------|
b |--------------------------------------------------------------------|
g |--------------------------------------------------------------------|
d |--4-4-4-4-4-4-4-4-4-4-4-4-4-4-4-4-1-1-1-1-1-1-1-1-1-1-1-1-1-1-1-1---|
a |--4-4-4-4-4-4-4-4-4-4-4-4-4-4-4-4-1-1-1-1-1-1-1-1-1-1-1-1-1-1-1-1---|
d |--4-4-4-4-4-4-4-4-4-4-4-4-4-4-4-4-1-1-1-1-1-1-1-1-1-1-1-1-1-1-1-1---|

Gtr 2:
e |----------9---------------9--------6-7-6-7---7-6-7-6-7-6-7---7-6-7---|
b |--6-7-6-7---7-6-7-6-7-6-7---7-6-7----------7---------------7---------|
g |---------------------------------------------------------------------|
d |---------------------------------------------------------------------|
a |---------------------------------------------------------------------|
d |---------------------------------------------------------------------|

Gtr 1:
e |------------------------------------------------------------------------------------|
b |------------------------------------------------------------------------------------|
g |------------------------------------------------------------------------------------|
d |--9-9-9-9-9-9-9-9-9-9-9-9-9-9-9-9-11-11-11-11-11-11-11-11-11-11-11-11-11-11-11-11---|
a |--9-9-9-9-9-9-9-9-9-9-9-9-9-9-9-9-11-11-11-11-11-11-11-11-11-11-11-11-11-11-11-11---|
d |--9-9-9-9-9-9-9-9-9-9-9-9-9-9-9-9-11-11-11-11-11-11-11-11-11-11-11-11-11-11-11-11---|

Gtr 2:
e |----------9---------------9--------6-7-6-7---7-6-7-6-7-6-7---7-6-7---|
b |--6-7-6-7---7-6-7-6-7-6-7---7-6-7----------7---------------7---------|
g |---------------------------------------------------------------------|
d |---------------------------------------------------------------------|
a |---------------------------------------------------------------------|
d |---------------------------------------------------------------------|


Break-

Gtr 1: Slightly Distorted
e |--------------------------------------------------------------------------------------------|
b |--------7p-6--6---------------7p-6-----------------7p-6--6---------------7p-6--6---7s-9-9---|
g |-------------6--6-----------------6-8-6----------------6--6----------------6------6---------|
d |--------------------------------------------------------------------------------------------|
a |-----------------------------------------------2---------------------4----------------------|
d |---4---------------------1------------------------------------------------------------------|

e |--------------------------------------------------------------------------------------------|
b |--------7p-6--6---------------7p-6-----------------7p-6--6---------------7p-6--6---7s-9-9---|
g |-------------6--6-----------------6-8-6----------------6--6----------------6------6---------|
d |--------------------------------------------------------------------------------------------|
a |-----------------------------------------------2---------------------4----------------------|
d |---4---------------------1------------------------------------------------------------------|

Gtr 1:
e |--------------------------------------------------------------------------------------------|
b |--------7p-6--6---------------7p-6-----------------7p-6--6---------------7p-6--6---7s-9-9---|
g |-------------6--6-----------------6-8-6----------------6--6----------------6------6---------|
d |--------------------------------------------------------------------------------------------|
a |-----------------------------------------------2---------------------4----------------------|
d |---4---------------------1------------------------------------------------------------------|


Gtr 2: Distorted/Heavily Palm muted
e |---------------------------------------------------------------------|
b |---------------------------------------------------------------------|
g |---------------------------------------------------------------------|
d |---4-4-4-4-4-4-4-4-4-4-4-4-4-4-4-4-1-1-1-1-1-1-1-1-1-1-1-1-1-1-1-1---|
a |---4-4-4-4-4-4-4-4-4-4-4-4-4-4-4-4-1-1-1-1-1-1-1-1-1-1-1-1-1-1-1-1---|
d |---------------------------------------------------------------------|

Gtr 1:
e |--------------------------------------------------------------------------------------------|
b |--------7p-6--6---------------7p-6-----------------7p-6--6---------------7p-6--6---7s-9-9---|
g |-------------6--6-----------------6-8-6----------------6--6----------------6------6---------|
d |--------------------------------------------------------------------------------------------|
a |-----------------------------------------------2---------------------4----------------------|
d |---4---------------------1------------------------------------------------------------------|

Gtr 2:
e |-------------------------------------------------------------------------------------|
b |-------------------------------------------------------------------------------------|
g |-------------------------------------------------------------------------------------|
d |---9-9-9-9-9-9-9-9-9-9-9-9-9-9-9-9-11-11-11-11-11-11-11-11-11-11-11-11-11-11-11-11---|
a |---9-9-9-9-9-9-9-9-9-9-9-9-9-9-9-9-11-11-11-11-11-11-11-11-11-11-11-11-11-11-11-11---|
d |-------------------------------------------------------------------------------------|

Gtr 1:
e |--------------------------------------------------------------------------------------------|
b |--------7p-6--6---------------7p-6-----------------7p-6--6---------------7p-6--6---7s-9-9---|
g |-------------6--6-----------------6-8-6----------------6--6----------------6------6---------|
d |--------------------------------------------------------------------------------------------|
a |-----------------------------------------------2---------------------4----------------------|
d |---4---------------------1------------------------------------------------------------------|

Gtr 2:
e |---------------------------------------------------------------------|
b |---------------------------------------------------------------------|
g |---------------------------------------------------------------------|
d |---4-4-4-4-4-4-4-4-4-4-4-4-4-4-4-4-1-1-1-1-1-1-1-1-1-1-1-1-1-1-1-1---|
a |---4-4-4-4-4-4-4-4-4-4-4-4-4-4-4-4-1-1-1-1-1-1-1-1-1-1-1-1-1-1-1-1---|
d |---------------------------------------------------------------------|

Gtr 1:
e |--------------------------------------------------------------------------------------------|
b |--------7p-6--6---------------7p-6-----------------7p-6--6---------------7p-6--6---7s-9-9---|
g |-------------6--6-----------------6-8-6----------------6--6----------------6------6---------|
d |--------------------------------------------------------------------------------------------|
a |-----------------------------------------------2---------------------4----------------------|
d |---4---------------------1------------------------------------------------------------------|

Gtr 2: Once again slowly let off palm
e |-------------------------------------------------------------------------------------|
b |-------------------------------------------------------------------------------------|
g |-------------------------------------------------------------------------------------|
d |---9-9-9-9-9-9-9-9-9-9-9-9-9-9-9-9-11-11-11-11-11-11-11-11-11-11-11-11-11-11-11-11---|
a |---9-9-9-9-9-9-9-9-9-9-9-9-9-9-9-9-11-11-11-11-11-11-11-11-11-11-11-11-11-11-11-11---|
d |-------------------------------------------------------------------------------------|

Gtr 1: Distorted
e |--------------------------------------------------------------------|
b |--------------------------------------------------------------------|
g |--------------------------------------------------------------------|
d |--4-4-4-4-4-4-4-4-4-4-4-4-4-4-4-4-1-1-1-1-1-1-1-1-1-1-1-1-1-1-1-1---|
a |--4-4-4-4-4-4-4-4-4-4-4-4-4-4-4-4-1-1-1-1-1-1-1-1-1-1-1-1-1-1-1-1---|
d |--4-4-4-4-4-4-4-4-4-4-4-4-4-4-4-4-1-1-1-1-1-1-1-1-1-1-1-1-1-1-1-1---|

Gtr 2: Distorted
e |----------9---------------9----------------9---------------9---------|
b |--6-7-6-7---7-6-7-6-7-6-7---7-6-7--6-7-6-7---7-6-7-6-7-6-7---7-6-7---|
g |---------------------------------------------------------------------|
d |---------------------------------------------------------------------|
a |---------------------------------------------------------------------|
d |---------------------------------------------------------------------|

Gtr 1:
e |------------------------------------------------------------------------------------|
b |------------------------------------------------------------------------------------|
g |------------------------------------------------------------------------------------|
d |--9-9-9-9-9-9-9-9-9-9-9-9-9-9-9-9-11-11-11-11-11-11-11-11-11-11-11-11-11-11-11-11---|
a |--9-9-9-9-9-9-9-9-9-9-9-9-9-9-9-9-11-11-11-11-11-11-11-11-11-11-11-11-11-11-11-11---|
d |--9-9-9-9-9-9-9-9-9-9-9-9-9-9-9-9-11-11-11-11-11-11-11-11-11-11-11-11-11-11-11-11---|

Gtr 2:
e |--6-7-6-7---7-6-7-6-7-6-7---7-6-7----------9---------------9---------|
b |----------7---------------7--------6-7-6-7---7-6-7-6-7-6-7---7-6-7---|
g |---------------------------------------------------------------------|
d |---------------------------------------------------------------------|
a |---------------------------------------------------------------------|
d |---------------------------------------------------------------------|

Gtr 1:
e |-------------------------------------------------------------------------|
b |-------------------------------------------------------------------------|
g |-------------------------------------------------------------------------|
d |--4-4-4-4-4----------------------------1-1-1-1-1-1-1-1-1-1-1-1-1-1-1-1---|
a |--4-4-4-4-4---------Pause--------------1-1-1-1-1-1-1-1-1-1-1-1-1-1-1-1---|
d |--4-4-4-4-4----------------------------1-1-1-1-1-1-1-1-1-1-1-1-1-1-1-1---|

Gtr 2:
e |----------9---------Pause--------------6-7-6-7---7-6-7-6-7-6-7---7-6-7---|
b |--6-7-6-7--------------------------------------7---------------7---------|
g |-------------------------------------------------------------------------|
d |-------------------------------------------------------------------------|
a |-------------------------------------------------------------------------|
d |-------------------------------------------------------------------------|

Gtr 1:
e |------------------------------------------------------------------------------------|
b |------------------------------------------------------------------------------------|
g |------------------------------------------------------------------------------------|
d |--9-9-9-9-9-9-9-9-9-9-9-9-9-9-9-9-11-11-11-11-11-11-11-11-11-11-11-11-11-11-11-11---|
a |--9-9-9-9-9-9-9-9-9-9-9-9-9-9-9-9-11-11-11-11-11-11-11-11-11-11-11-11-11-11-11-11---|
d |--9-9-9-9-9-9-9-9-9-9-9-9-9-9-9-9-11-11-11-11-11-11-11-11-11-11-11-11-11-11-11-11---|

Gtr 2:
e |----------9---------------9--------6-7-6-7---7-6-7-6-7-6-7---7-6-7---|
b |--6-7-6-7---7-6-7-6-7-6-7---7-6-7----------7---------------7---------|
g |---------------------------------------------------------------------|
d |---------------------------------------------------------------------|
a |---------------------------------------------------------------------|
d |---------------------------------------------------------------------|

Chorus-

Gtr 1: Distorted
e |--------------------------------------------------------------------|
b |--------------------------------------------------------------------|
g |--------------------------------------------------------------------|
d |--4-4-4-4-4-4-4-4-4-4-4-4-4-4-4-4-1-1-1-1-1-1-1-1-1-1-1-1-1-1-1-1---|
a |--4-4-4-4-4-4-4-4-4-4-4-4-4-4-4-4-1-1-1-1-1-1-1-1-1-1-1-1-1-1-1-1---|
d |--4-4-4-4-4-4-4-4-4-4-4-4-4-4-4-4-1-1-1-1-1-1-1-1-1-1-1-1-1-1-1-1---|

Gtr 2: Distorted
e |----------9---------------9----------------9---------------9---------|
b |--6-7-6-7---7-6-7-6-7-6-7---7-6-7--6-7-6-7---7-6-7-6-7-6-7---7-6-7---|
g |---------------------------------------------------------------------|
d |---------------------------------------------------------------------|
a |---------------------------------------------------------------------|
d |---------------------------------------------------------------------|

Gtr 1:
e |------------------------------------------------------------------------------------|
b |------------------------------------------------------------------------------------|
g |------------------------------------------------------------------------------------|
d |--9-9-9-9-9-9-9-9-9-9-9-9-9-9-9-9-11-11-11-11-11-11-11-11-11-11-11-11-11-11-11-11---|
a |--9-9-9-9-9-9-9-9-9-9-9-9-9-9-9-9-11-11-11-11-11-11-11-11-11-11-11-11-11-11-11-11---|
d |--9-9-9-9-9-9-9-9-9-9-9-9-9-9-9-9-11-11-11-11-11-11-11-11-11-11-11-11-11-11-11-11---|

Gtr 2:
e |--6-7-6-7---7-6-7-6-7-6-7---7-6-7----------9---------------9---------|
b |----------7---------------7--------6-7-6-7---7-6-7-6-7-6-7---7-6-7---|
g |---------------------------------------------------------------------|
d |---------------------------------------------------------------------|
a |---------------------------------------------------------------------|
d |---------------------------------------------------------------------|

Gtr 1:
e |--------------------------------------------------------------------|
b |--------------------------------------------------------------------|
g |--------------------------------------------------------------------|
d |--4-4-4-4-4-4-4-4-4-4-4-4-4-4-4-4-1-1-1-1-1-1-1-1-1-1-1-1-1-1-1-1---|
a |--4-4-4-4-4-4-4-4-4-4-4-4-4-4-4-4-1-1-1-1-1-1-1-1-1-1-1-1-1-1-1-1---|
d |--4-4-4-4-4-4-4-4-4-4-4-4-4-4-4-4-1-1-1-1-1-1-1-1-1-1-1-1-1-1-1-1---|

Gtr 2:
e |----------9---------------9--------6-7-6-7---7-6-7-6-7-6-7---7-6-7---|
b |--6-7-6-7---7-6-7-6-7-6-7---7-6-7----------7---------------7---------|
g |---------------------------------------------------------------------|
d |---------------------------------------------------------------------|
a |---------------------------------------------------------------------|
d |---------------------------------------------------------------------|

Gtr 1:
e |------------------------------------------------------------------------------------|
b |------------------------------------------------------------------------------------|
g |------------------------------------------------------------------------------------|
d |--9-9-9-9-9-9-9-9-9-9-9-9-9-9-9-9-11-11-11-11-11-11-11-11-11-11-11-11-11-11-11-11---|
a |--9-9-9-9-9-9-9-9-9-9-9-9-9-9-9-9-11-11-11-11-11-11-11-11-11-11-11-11-11-11-11-11---|
d |--9-9-9-9-9-9-9-9-9-9-9-9-9-9-9-9-11-11-11-11-11-11-11-11-11-11-11-11-11-11-11-11---|

Gtr 2:
e |----------9---------------9--------6-7-6-7---7-6-7-6-7-6-7---7-6-7---|
b |--6-7-6-7---7-6-7-6-7-6-7---7-6-7----------7---------------7---------|
g |---------------------------------------------------------------------|
d |---------------------------------------------------------------------|
a |---------------------------------------------------------------------|
d |---------------------------------------------------------------------|

Gtr 1:
e |-------|
b |-------|
g |-------|
d |---4---|		*Let ring*
a |---4---|
d |---4---|

Gtr 2:
e |----------|
b |---6s-7---|
g |----------|
d |----------|	*Let ring*
a |----------|
d |----------|

--End--
Related for The Quiet Things tab