Song name
# A B C D E F G H I J K L M N O P Q R S T U V W X Y Z

Brand New - Yeah tab

Band: Brand New
Song: Yeah (New CD, November 21st)- Leaked Demo #8
Tabbed By: Tristan Keddy (bn_seventyx7@hotmail.com)
Tuning: Half a step down

I'm playing Jesse's part of the song, Vinnie's is mostly the same but im not sure of 
what it is. I haven't tabbed two many songs, so give me a break but this is almost perfect. 
is played on electric guitar not acoustic like in the demos.

(~) vibrato

Intro/Main Riff

e|--x-x-x-x-x-x--x-x-x-x-x-x--x-x-x-x-x-x--x-x-x-x-x-x----------| Play Once before
B|--x-x-x-x-x-x--x-x-x-x-x-x--x-x-x-x-x-x--x-x-x-x-x-x----------| verse start.
G|--x-x-x-x-x-x--x-x-x-x-x-x--x-x-x-x-x-x--x-x-x-x-x-x----------|
D|--5-5-5-5-5-5--x-x-x-x-x-x--x-x-x-x-x-x--x-x-x-x-x-x---| x 15-| (Including
A|--7-7-7-7-7-7--5-5-5-5-5-5--7-7-7-7-7-7--5-5-5-5-5-5----------| all verse, and
E|--x-x-x-x-x-x--7-7-7-7-7-7--5-5-5-5-5-5--3-3-3-3-3-3----------| yeah pauses.

1st Chorus

e|--x-x-x-x-x-x--x-x-x-x-x-x--x-x-x-x-x-x--x-x-x-x-x-x-----| Heavy Distortion
B|--x-x-x-x-x-x--x-x-x-x-x-x--x-x-x-x-x-x--x-x-x-x-x-x-----| during this part
G|--x-x-x-x-x-x--x-x-x-x-x-x--x-x-x-x-x-x--x-x-x-x-x-x-----| and play the open
D|--5-5-5-5-5-5--0-0-0-0-0-0--0-0-0-0-0-0--0-0-0-0-0-0-----| D and E string
A|--7-7-7-7-7-7--5-5-5-5-5-5--7-7-7-7-7-7--5-5-5-5-5-5-----| open.
E|--0-0-0-0-0-0--7-7-7-7-7-7--5-5-5-5-5-5--3-3-3-3-3-3-----|

e|--x-x-x-x-x-x--x-x-x-x-x-x--x-x-x-x-x-x--x-x-x-x-x-x---|
B|--x-x-x-x-x-x--x-x-x-x-x-x--x-x-x-x-x-x--x-x-x-x-x-x---|
G|--x-x-x-x-x-x--x-x-x-x-x-x--x-x-x-x-x-x--x-x-x-x-x-x---|
D|--5-5-5-5-5-5--0-0-0-0-0-0--0-0-0-0-0-0--0-0-0-0-0-0---|
A|--7-7-7-7-7-7--5-5-5-5-5-5--7-7-7-7-7-7--5-5-5-5-5-5---|
E|--0-0-0-0-0-0--7-7-7-7-7-7--5-5-5-5-5-5--3-3-3-3-3-3---|

e|--x-x-x-x--x-x-x-x-x-x--x-x-x-x-x-x--x-x-x-x-x-x---|
B|--x-x-x-x--x-x-x-x-x-x--x-x-x-x-x-x--x-x-x-x-x-x---|
G|--x-x-x-x--x-x-x-x-x-x--x-x-x-x-x-x--x-x-x-x-x-x---|
D|--2-2-2-2--x-x-x-x-x-x--0-0-0-0-0-0--0-0-0-0-0-0---|
A|--2-2-2-2--9-9-9-9-9-9--5-5-5-5-5-5--5-5-5-5-5-5---|
E|--0-0-0-0--7-7-7-7-7-7--3-3-3-3-3-3--7-7-7-7-7-7---|

e|--x-x-x-x-x-x--x-x-x-x-x-x--x-x-x-x-x-x--x-x-x-x-x-x---|
B|--x-x-x-x-x-x--x-x-x-x-x-x--x-x-x-x-x-x--x-x-x-x-x-x---|
G|--x-x-x-x-x-x--x-x-x-x-x-x--x-x-x-x-x-x--x-x-x-x-x-x---|
D|--5-5-5-5-5-5--0-0-0-0-0-0--0-0-0-0-0-0--0-0-0-0-0-0---|
A|--7-7-7-7-7-7--5-5-5-5-5-5--7-7-7-7-7-7--5-5-5-5-5-5---|
E|--0-0-0-0-0-0--7-7-7-7-7-7--5-5-5-5-5-5--3-3-3-3-3-3---|

e|---------------|
B|---------------| Play this after the chorus twice
G|---------------|
D|---------------| x2
A|-7~------------|
E|----7~-5~-3~---|

e|--x-x-x-x-x-x--x-x-x-x-x-x--x-x-x-x-x-x--x-x-x-x-x-x---|
B|--x-x-x-x-x-x--x-x-x-x-x-x--x-x-x-x-x-x--x-x-x-x-x-x---|
G|--x-x-x-x-x-x--x-x-x-x-x-x--x-x-x-x-x-x--x-x-x-x-x-x---| Then the main
D|--5-5-5-5-5-5--x-x-x-x-x-x--x-x-x-x-x-x--x-x-x-x-x-x---| riff twice
A|--7-7-7-7-7-7--5-5-5-5-5-5--7-7-7-7-7-7--5-5-5-5-5-5---|
E|--x-x-x-x-x-x--7-7-7-7-7-7--5-5-5-5-5-5--3-3-3-3-3-3---|


e|---------------|
B|---------------| Then this is played twice.
G|---------------|
D|---------------| x2
A|-7~------------|
E|----7~-5~-3~---|

2nd Chorus

e|--x-x-x-x-x-x--x-x-x-x-x-x--x-x-x-x-x-x--x-x-x-x-x-x-----| Heavy Distortion
B|--x-x-x-x-x-x--x-x-x-x-x-x--x-x-x-x-x-x--x-x-x-x-x-x-----| during this part
G|--x-x-x-x-x-x--x-x-x-x-x-x--x-x-x-x-x-x--x-x-x-x-x-x-----| and play the open
D|--5-5-5-5-5-5--0-0-0-0-0-0--0-0-0-0-0-0--0-0-0-0-0-0-----| D and E string
A|--7-7-7-7-7-7--5-5-5-5-5-5--7-7-7-7-7-7--5-5-5-5-5-5-----| open.
E|--0-0-0-0-0-0--7-7-7-7-7-7--5-5-5-5-5-5--3-3-3-3-3-3-----|

e|--x-x-x-x-x-x--x-x-x-x-x-x--x-x-x-x-x-x--x-x-x-x-x-x---|
B|--x-x-x-x-x-x--x-x-x-x-x-x--x-x-x-x-x-x--x-x-x-x-x-x---|
G|--x-x-x-x-x-x--x-x-x-x-x-x--x-x-x-x-x-x--x-x-x-x-x-x---|
D|--5-5-5-5-5-5--0-0-0-0-0-0--0-0-0-0-0-0--0-0-0-0-0-0---|
A|--7-7-7-7-7-7--5-5-5-5-5-5--7-7-7-7-7-7--5-5-5-5-5-5---|
E|--0-0-0-0-0-0--7-7-7-7-7-7--5-5-5-5-5-5--3-3-3-3-3-3---|

e|--x-x-x-x--x-x-x-x-x-x--x-x-x-x-x-x--x-x-x-x-x-x---|
B|--x-x-x-x--x-x-x-x-x-x--x-x-x-x-x-x--x-x-x-x-x-x---|
G|--x-x-x-x--x-x-x-x-x-x--x-x-x-x-x-x--x-x-x-x-x-x---|
D|--2-2-2-2--x-x-x-x-x-x--0-0-0-0-0-0--0-0-0-0-0-0---|
A|--2-2-2-2--9-9-9-9-9-9--5-5-5-5-5-5--5-5-5-5-5-5---|
E|--0-0-0-0--7-7-7-7-7-7--3-3-3-3-3-3--7-7-7-7-7-7---|

e|--x-x-x-x-x-x--x-x-x-x-x-x--x-x-x-x-x-x--x-x-x-x-x-x---|
B|--x-x-x-x-x-x--x-x-x-x-x-x--x-x-x-x-x-x--x-x-x-x-x-x---|
G|--x-x-x-x-x-x--x-x-x-x-x-x--x-x-x-x-x-x--x-x-x-x-x-x---|
D|--5-5-5-5-5-5--0-0-0-0-0-0--0-0-0-0-0-0--0-0-0-0-0-0---|
A|--7-7-7-7-7-7--5-5-5-5-5-5--7-7-7-7-7-7--5-5-5-5-5-5---|
E|--0-0-0-0-0-0--7-7-7-7-7-7--5-5-5-5-5-5--3-3-3-3-3-3---|

e|--x-x-x-x-x-x--x-x-x-x-x-x-x-x--x-x-x-x-x-x--x-x-x-x-x-x-x-x-|
B|--x-x-x-x-x-x--x-x-x-x-x-x-x-x--x-x-x-x-x-x--x-x-x-x-x-x-x-x-|
G|--x-x-x-x-x-x--x-x-x-x-x-x-x-x--x-x-x-x-x-x--x-x-x-x-x-x-x-x-|
D|--x-x-x-x-x-x--5-5-5-5-5-5-5-5--5-5-5-5-5-5--0-0-0-0-0-0-0-0-|
A|--5-5-5-5-5-5--7-7-7-7-7-7-7-7--3-3-3-3-3-3--5-5-5-5-5-5-5-5-|
E|--7-7-7-7-7-7--0-0-0-0-0-0-0-0--0-0-0-0-0-0--3-3-3-3-3-3-2-2-|

e|--x-x-x-x-x-x--x-x-x-x-x-x-x-x--x-x-x-x-x-x--x-x-x-x-x-x-x-x-|
B|--x-x-x-x-x-x--x-x-x-x-x-x-x-x--x-x-x-x-x-x--x-x-x-x-x-x-x-x-|
G|--x-x-x-x-x-x--x-x-x-x-x-x-x-x--x-x-x-x-x-x--x-x-x-x-x-x-x-x-|
D|--x-x-x-x-x-x--5-5-5-5-5-5-5-5--5-5-5-5-5-5--0-0-0-0-0-0-0-0-|
A|--5-5-5-5-5-5--7-7-7-7-7-7-7-7--3-3-3-3-3-3--5-5-5-5-5-5-5-5-|
E|--7-7-7-7-7-7--0-0-0-0-0-0-0-0--0-0-0-0-0-0--3-3-3-3-3-3-2-2-|

e|---------------|
B|---------------| Played after 2nd chorus four times
G|---------------|
D|---------------| x4
A|-7~------------|
E|----7~-5~-3~---|

e|--x-x-x-x-x-x--x-x-x-x-x-x--x-x-x-x-x-x--x-x-x-x-x-x---|
B|--x-x-x-x-x-x--x-x-x-x-x-x--x-x-x-x-x-x--x-x-x-x-x-x---| This is also
G|--x-x-x-x-x-x--x-x-x-x-x-x--x-x-x-x-x-x--x-x-x-x-x-x---| played four
D|--5-5-5-5-5-5--x-x-x-x-x-x--x-x-x-x-x-x--x-x-x-x-x-x---| times after
A|--7-7-7-7-7-7--5-5-5-5-5-5--7-7-7-7-7-7--5-5-5-5-5-5---| 2nd chorus
E|--x-x-x-x-x-x--7-7-7-7-7-7--5-5-5-5-5-5--3-3-3-3-3-3---|

Last Chorus


e|--x-x-x-x-x-x--x-x-x-x-x-x--x-x-x-x-x-x--x-x-x-x-x-x---|
B|--x-x-x-x-x-x--x-x-x-x-x-x--x-x-x-x-x-x--x-x-x-x-x-x---|
G|--x-x-x-x-x-x--x-x-x-x-x-x--x-x-x-x-x-x--x-x-x-x-x-x---|
D|--5-5-5-5-5-5--0-0-0-0-0-0--0-0-0-0-0-0--0-0-0-0-0-0---|
A|--7-7-7-7-7-7--5-5-5-5-5-5--7-7-7-7-7-7--5-5-5-5-5-5---|
E|--0-0-0-0-0-0--7-7-7-7-7-7--5-5-5-5-5-5--3-3-3-3-3-3---|

e|--x-x-x-x-x-x--x-x-x-x-x-x--x-x-x-x-x-x--x-x-x-x-x-x---|
B|--x-x-x-x-x-x--x-x-x-x-x-x--x-x-x-x-x-x--x-x-x-x-x-x---|
G|--x-x-x-x-x-x--x-x-x-x-x-x--x-x-x-x-x-x--x-x-x-x-x-x---|
D|--5-5-5-5-5-5--0-0-0-0-0-0--0-0-0-0-0-0--0-0-0-0-0-0---|
A|--7-7-7-7-7-7--5-5-5-5-5-5--7-7-7-7-7-7--5-5-5-5-5-5---|
E|--0-0-0-0-0-0--7-7-7-7-7-7--5-5-5-5-5-5--3-3-3-3-3-3---|

e|--x-x-x-x--x-x-x-x-x-x--x-x-x-x-x-x--x-x-x-x-x-x---|
B|--x-x-x-x--x-x-x-x-x-x--x-x-x-x-x-x--x-x-x-x-x-x---|
G|--x-x-x-x--x-x-x-x-x-x--x-x-x-x-x-x--x-x-x-x-x-x---|
D|--2-2-2-2--x-x-x-x-x-x--0-0-0-0-0-0--0-0-0-0-0-0---|
A|--2-2-2-2--9-9-9-9-9-9--5-5-5-5-5-5--5-5-5-5-5-5---|
E|--0-0-0-0--7-7-7-7-7-7--3-3-3-3-3-3--7-7-7-7-7-7---|

e|--x-x-x-x-x-x--x-x-x-x-x-x--x-x-x-x-x-x--x-x-x-x-x-x---|
B|--x-x-x-x-x-x--x-x-x-x-x-x--x-x-x-x-x-x--x-x-x-x-x-x---|
G|--x-x-x-x-x-x--x-x-x-x-x-x--x-x-x-x-x-x--x-x-x-x-x-x---|
D|--5-5-5-5-5-5--0-0-0-0-0-0--0-0-0-0-0-0--0-0-0-0-0-0---|
A|--7-7-7-7-7-7--5-5-5-5-5-5--7-7-7-7-7-7--5-5-5-5-5-5---|
E|--0-0-0-0-0-0--7-7-7-7-7-7--5-5-5-5-5-5--3-3-3-3-3-3---|

e|--x-x-x-x-x-x--x-x-x--x-x--x-x-x-x--x-x-x-x--x-x--|
B|--x-x-x-x-x-x--x-x-x--x-x--x-x-x-x--x-x-x-x--x-x--|
G|--x-x-x-x-x-x--x-x-x--x-x--x-x-x-x--x-x-x-x--x-x--|
D|--x-x-x-x-x-x--5-5-5--2-2--9-9-9-9- 5-5-5-5--2-2--|
A|--5-5-5-5-5-5--7-7-7--2-2--9-9-9-9--5-5-5-5--2-2--|
E|--7-7-7-7-7-7--0-0-0--0-0--7-7-7-7- 3-3-3-3--0-0--|

And that's it. If u have any question feel free to e-mail me.
The song is not hard....you just have to listen to the rythme.
This tab is almost perfect...so dont give up on it.
Tap to rate this tab
# A B C D E F G H I J K L M N O P Q R S T U V W X Y Z