Song name
# A B C D E F G H I J K L M N O P Q R S T U V W X Y Z

Brand New - Guernica tab

Band: Brand New
Song: Guernica
Album: Deja Entendu

please comment and rate it

;D


Intro Part 1:

Guitar 2:

eb|--12*-------------|
Bb|---------7*--12*--|
Gb|------7*----------|
Db|------------------|
Ab|------------------|
Eb|------------------|


Intro Part 2/Verse 1:

Guitar 1:

eb|-------------------------------------------------------------------------|
Bb|------------------------------------------------------------3---3/5-555--|
Gb|---------------------------------------------------------0---0-----------|  4x
Db|-------------------------775544555----------------------4-4---4----------|
Ab|-----------------5555555----------------------------2/3~~----------------|
Eb|0000000000000000-------------------3333333333333333----------------------|

Guitar 2:

"A phone call I'd rather not receive..."
eb|--7-7-7-7-7-7-7----------------------|
Bb|-------------------------------------|
Gb|------------------(many times)-------|
Db|-------------------------------------|
Ab|-------------------------------------|
Eb|-------------------------------------|
   play til the verse ends


Pre-Chorus 1:

Guitar 1:

eb|----------------------------------------------|
Bb|----------------------------10p7-77-10-10-10--|
Gb|--7/9/11--12-11-7--7/9/11---------------------|  2x
Db|----------------------------------------------|
Ab|----------------------------------------------|
Eb|----------------------------------------------|

Guitar 2:

eb|--12*---------12*-----7*---|
Bb|------7*-------------------|
Gb|---------7*-------7*-------|  2x
Db|---------------------------|
Ab|---------------------------|
Eb|---------------------------|


Chorus 1:

Both Guitars:

eb|-------------------------------------------------------------------|
Bb|-------------------------------------------------------------------|
Gb|---------77777777--------------------------------------------------|  2x
Db|-9999999977777777555555555555--9999999977777777----2---2---2222----|
Ab|-9999999955555555555555555555--9999999977777777----2---2---2222----|
Eb|-77777777--------333333333333--7777777755555555-000000000000000----|
   PM                                              *** *** ***

Verse 2:

Guitar 1:

eb|-------------------------------------------------------------------------|
Bb|------------------------------------------------------------3---3/5-555--|
Gb|---------------------------------------------------------0---0-----------|  2x
Db|-------------------------775544555----------------------4-4---4----------|
Ab|-----------------5555555----------------------------2/3~~----------------|
Eb|0000000000000000-------------------3333333333333333----------------------|

Guitar 2:

"If I could I would shrink myself..."
eb|--7-7-7-7-7-7-7----------------------|
Bb|-------------------------------------|
Gb|------------------(many times)-------|
Db|-------------------------------------|
Ab|-------------------------------------|
Eb|-------------------------------------|
   play til the verse ends


Pre-Chorus 2:

Guitar 1:

eb|----------------------------------------------|
Bb|----------------------------10p7-77-10-10-10--|
Gb|--7/9/11--12-11-7--7/9/11---------------------|  2x
Db|----------------------------------------------|
Ab|----------------------------------------------|
Eb|----------------------------------------------|

Guitar 2:

eb|--12*---------12*-----7*---|
Bb|------7*-------------------|
Gb|---------7*-------7*-------|  2x
Db|---------------------------|
Ab|---------------------------|
Eb|---------------------------|


Chorus 2:

Both Guitars:

eb|-------------------------------------------------------------------|
Bb|-------------------------------------------------------------------|
Gb|---------77777777--------------------------------------------------|  2x
Db|-9999999977777777555555555555--9999999977777777----2---2---2222----|
Ab|-9999999955555555555555555555--9999999977777777----2---2---2222----|
Eb|-77777777--------333333333333--7777777755555555-000000000000000----|
   PM                                              *** *** ***


Interlude Part 1:

Guitar 1:

eb|-----------------------------------------------------------------------|
Bb|-----------------------------------------------------------------------|
Gb|-9999999977777777-4444444455555555--9999999977777777----------5555-----|
Db|-9999999977777777-5555555555555555--9999999977777777-77777777-55555555-|   2x
Ab|-7777777755555555-2222222233333333--7777777755555555-77777777-33335555-|
Eb|-----------------------------------------------------55555555-----3333-|
   PM                                                   ********

Guitar 2:

eb|-----------------------------------------------------------------------|
Bb|-----------------------------------------------------------------------|
Gb|-9999999977777777-4444444455555555--9999999977777777----------5555-----|
Db|-9999999977777777-5555555555555555--9999999977777777-77777777-55555555-|
Ab|-7777777755555555-2222222233333333--7777777755555555-77777777-33335555-|
Eb|-----------------------------------------------------55555555-----3333-|
   PM                                                   ********

eb|-----------------------------------------------------------------------|
Bb|-----------------------------------------------------------------------|
Gb|----4------4--------4------4-------------4------4-------------5555-----|
Db|---5-5----5-5------5-5----5-5-----------5-5----5-5------------55555555-|
Ab|--7------7--------7------7-------------7------7------00000000-33335555-|
Eb|------------------------------------------------------------------3333-|
   PM                                                   ********

Interlude Part 2:

Guitar 1:

eb|------------------------------------------------------------|
Bb|------------------------------------------------------------|
Gb|------------------------------------------------------------|
Db|-4444444477777777--------------4444444422222222-------------|
Ab|-2222222255555555555555555555--2222222200000000-2222222222--|
Eb|-----------------333333333333-------------------0000000000--|
   PM                                              **********

Guitar 2:

eb|------------------------------------------------------------|
Bb|------------------------------------------------------------|
Gb|------------------------------------------------------------|
Db|------------------------------------------------------------|
Ab|------------------------------------------------2222222222--|
Eb|------------------------------------------------0000000000--|
   PM                                              **********


Last Chorus:

Both Guitars:

eb|-------------------------------------------------------------------|
Bb|-------------------------------------------------------------------|
Gb|---------77777777--------------------------------------------------|  2x
Db|-9999999977777777555555555555--9999999977777777----2---2---2222----|
Ab|-9999999955555555555555555555--9999999977777777----2---2---2222----|
Eb|-77777777--------333333333333--7777777755555555-000000000000000----|
   PM                                              *** *** ***
Tap to rate this tab
# A B C D E F G H I J K L M N O P Q R S T U V W X Y Z