Song name
# A B C D E F G H I J K L M N O P Q R S T U V W X Y Z

Brand New - Untitled Encore tab

Just the Loops


Loop 1
|-------------------|--------------------|--------------------|-------------|
|-----3-------3-----|--------------------|--------------------|-------------|
|---0---0---0---0---|-----0-------0------|-----0-------0------|-----0-------|
|-2-------2---------|---4---4---4---4----|---2---2---2---2----|---0---0---0-|
|--------------------|-5-------5----------|-3-------3---------|-2-------2---|
|--------------------|--------------------|-------------------|-------------|


Loop 2    Harmonics With Whammy
|--------------------|-19^---------------|-12^----------------|-------------|
|--------------------|-19^---------------|-12^----------------|-------------|
|--------------------|-19^---------------|-12^----------------|-------------|
|--------------------|-------------------|--------------------|-------------|
|--------------------|-------------------|--------------------|-------------|
|--------------------|-------------------|--------------------|-------------|

Loop 3                                    [--------------PM-----------------]
|-------------------|--------------------------------------------------------|
|-------------------|--------------------|-----------------------------------|
|-------------------|--------------------|--------------------------0--------|
|-------------------|--------------------|-0--0--0--0--0---0--0--0--12-0-----|
|-------------------|--------------------|-12-14-14-12-14--12-14-12----12----|
|-------------------|--------------------|-----------------------------------|

Loop 4
|---------------------------------------------------------------------------|
|-12--------------------10-----------------------------------------------10-|
|----12--------------------11-----9------------------------------9--12------|
|-----------------------------12--------------------------------------------|
|---------------------------------------------------------------------------|
|---------------------------------------------------------------------------|
Tap to rate this tab
# A B C D E F G H I J K L M N O P Q R S T U V W X Y Z