Song name
# A B C D E F G H I J K L M N O P Q R S T U V W X Y Z

Brand New - Seventy Times 7 tab

originally in Eb but its easier to play in Drop D

Guitar 1
e-------------------------------------------------------------------| 
b-------------------------------------------------------------------| 
G---------------------------------------------------6-6-------------| 
D6-6---6---6---6--6-6---6---6---6--6-6---6---6---6--6-6-------------| 
A6-6---6---6---6--6-6---6---6---6--6-6---6---6---6--4-4-------------| 
D6-6---6---6---6--6-6---6---6---6--6-6---6---6---6------------------| 

Guitar 2
e-------------------------------------------------------------------|
b-------------------------------------------------------------------|
G--------------------6~-----------------------------6~--------------|
D-6~-----------------6~-------------6---------------6~--------------|
A-6~-----------------4~-------------6---------------4~--------------|
D-6~--------------------------------6-------------------------------|

Solo

Guitar 1
e--------------------------------------------------------------------| 
b--------------------------------------------------------------------| 
G-----------------------------------8-8---8---8---8--8-8---8---8---8-| 
D-6-6---6---6---6--6-6---6---6---6--8-8---8---8---8--8-8---8---8---8-| 
A-6-6---6---6---6--6-6---6---6---6--6-6---6---6---6--6-6---6---6---6-| 
D-4-4---4---4---4--4-4---4---4---4-----------------------------------|

---------------------------------------------------------------------| 
---------------------------------------------------------------------| 
--6-6---6---6---6--6-6---6---6---6--8-8---8---8---8--6-6---6---6---6-| 
--6-6---6---6---6--6-6---6---6---6--8-8---8---8---8--6-6---6---6---6-| 
--4-4---4---4---4--4-4---4---4---4--6-6---6---6---6--4-4---4---4---4-| 
---------------------------------------------------------------------|

Guitar 2
e--------------------------------------------------------------------------|
B--------------------------------9----9h11--9-----13-13-13-13--11----------|
G-------8----8h10-8~-------10-10---10----------------------------13--------|
D-10-10---10---------------------------------------------------------------|
A--------------------------------------------------------------------------|
D--------------------------------------------------------------------------|

e-----------------------------------------|
B-13-13-13-11-------------------9h11------|
G-------------13-----------8h10-------8~--|
D--------------------8h10-----------------|
A-----------------------------------------|
D-----------------------------------------|

e----------------------------------------------------------------11p8------|
B-------------------------11p9------------------------9h11p9----------11p9-|
G-------5h8---8h10p8-----------10p8-------------8h10---------10------------|
D---6h8--------------10--------------------8h10----------------------------|
A-8-------------------------------------11---------------------------------|
D--------------------------------------------------------------------------|

e-16-16-16-13-13-------16-13-13-------16-13----16/18-16-16h18p16--------|
B----------------16-16----------16-16-------16-------------------18-16~-|
G-----------------------------------------------------------------------|
D-----------------------------------------------------------------------|
A-----------------------------------------------------------------------|
D-----------------------------------------------------------------------|

Verse X2

Guitar 1
e--------------------------------------------------------------------| 
b--------------------------------------------------------------------| 
G--------------------------------------------------------------------| 
D---------------------------------8-8-8-8-8-8-8-8-8-8-8-8-8-8-8-8----| 
A-6-6-6-6-6-6-6-6-6-6-6-6-6-6-6-6-6-6-6-6-6-6-6-6-6-6-6-6-6-6-6-6----|
D-6-6-6-6-6-6-6-6-6-6-6-6-6-6-6-6------------------------------------|
pm...............................................................

e--------------------------------------------------------------------| 
b--------------------------------------------------------------------| 
G--------------------------------------------------------------------| 
D-6-6-6-6-6-6-6-6-6-6-6-6-6-6-6-6-8-8-8-8-8-8-8-8-6-6-6-6-6-6-6-6----| 
A-4-4-4-4-4-4-4-4-4-4-4-4-4-4-4-4-6-6-6-6-6-6-6-6-4-4-4-4-4-4-4-4----| 
D--------------------------------------------------------------------|
pm.................................................................

Guitar 2
e--------------------------------------------------------------------| 
b--------------------------------------------------------------------| 
G--------------------------------------------------------------------| 
D-------------------------------------8-8-6-6-5-5-----8-8-6-6-5-5----| 
A-----6-6-4-4-3-3-----6-6-4-4-3-3-6-6-------------6-6----------------|
D-6-6-------------6-6------------------------------------------------|
pm...............................................................

e--------------------------------------------------------------------| 
b--------------------------------------------------------------------| 
G-------------------------------------------------8-8-6-6-5h6p5h6----| 
D-----6-6-4-4-3-3-----6-6-4-4-3-3-----8-8-6-6-5-5--------------------| 
A-4-4-------------4-4-------------6-6--------------------------------| 
D--------------------------------------------------------------------|
pm.......................................................

Chorus X2

Both Guitars
e---------------------------------------------------------------------| 
b---------------------------------------------------------------------| 
G----------------------------------6-6-6-6-6-6-6-6-6-6-6-6-6-6-6-6----| 
D-6-6-6-6-6-6-6-6-6-6-6-6-6-6-6-6--6-6-6-6-6-6-6-6-6-6-6-6-6-6-6-6----| 
A-6-6-6-6-6-6-6-6-6-6-6-6-6-6-6-6--4-4-4-4-4-4-4-4-4-4-4-4-4-4-4-4----|
D-6-6-6-6-6-6-6-6-6-6-6-6-6-6-6-6-------------------------------------|



Repeat Verse 1X

then 

Guitar 1
e--------------------------------------------------------------------| 
b--------------------------------------------------------------------| 
G--------------------------------------------------------------------| 
D-6-6-6-6-6-6-6-6-6\--------------8-8-8-8-8-8-8-8-8-8-8-8-8-8-8-8----| 
A-6-6-6-6-6-6-6-6-6\--------------6-6-6-6-6-6-6-6-6-6-6-6-6-6-6-6----|
D-6-6-6-6-6-6-6-6-6\-------------------------------------------------|
				  pm...............................
e--------------------------------------------------------------------| 
b--------------------------------------------------------------------| 
G--------------------------------------------------------------------| 
D-6-6-6-6-6-6-6-6-6-6-6-6-6-6-6-6-8-8-8-8-8-8-8-8-6-6-6-6-6-6-6-6----| 
A-4-4-4-4-4-4-4-4-4-4-4-4-4-4-4-4-6-6-6-6-6-6-6-6-4-4-4-4-4-4-4-4----| 
D--------------------------------------------------------------------|
pm.................................................................

Guitar 2
e--------------------------------------------------------------------| 
b--------------------------------------------------------------------| 
G--------------------------------------------------------------------| 
D-6-6-6-6-6-6-6-6-6\------------------8-8-6-6-5-5-----8-8-6-6-5-5----| 
A-6-6-6-6-6-6-6-6-6\--------------6-6-------------6-6----------------|
D-6-6-6-6-6-6-6-6-6\-------------------------------------------------|
                                pm...............................

e--------------------------------------------------------------------| 
b--------------------------------------------------------------------| 
G-------------------------------------------------8-8-6-6-5h6p5h6----| 
D-----6-6-4-4-3-3-----6-6-4-4-3-3-----8-8-6-6-5-5--------------------| 
A-4-4-------------4-4-------------6-6--------------------------------| 
D--------------------------------------------------------------------|
pm.......................................................

Repeat Chorus 4X


interlude
guitar 1 X2
e---------------------------------------------| 
b---------------------------------------------| 
G---------------8-------------5-------------6-| 
D-6-------------8-------------5-------------6-| 
A-6-------------6-------------3-------------4-|
D-6-------------------------------------------|
slow strums

guitar 2 
let ring from chorus and fade
e------------| 
b------------| 
G-6----------| 
D-6----------|
A-4----------|
D------------|


guitar 1 
at the start of the speaking part
e------------| 
b------------| 
G------------| 
D-6~---------|
A-6~---------|
D-6~---------|

clean part X2
e---------------------------------------------| 
b------------------------------1-2-1---4------| 
G-------5-6-5---------------1--------1--------| 
D----6--------6-3--------1--------------------| 
A---------------------------------------------|
D-6-------------------------------------------|


Outro chorus X2

Guitar 1
e--------------------------------------------------------------------| 
b--------------------------------------------------------------------| 
G--------------------------------------------------------------------| 
D-6-6-6-6-6-6-6-6-6-6-6-6-6-6-6-6--3-3-3-3-3-3-3-3-3-3-3-3-3-3-3-3---| 
A-6-6-6-6-6-6-6-6-6-6-6-6-6-6-6-6--3-3-3-3-3-3-3-3-3-3-3-3-3-3-3-3---|
D-6-6-6-6-6-6-6-6-6-6-6-6-6-6-6-6--3-3-3-3-3-3-3-3-3-3-3-3-3-3-3-3---|

e--------------------------------------------------------------------| 
b--------------------------------------------------------------------| 
G----------------------------------6-6-6-6-6-6-6-6-6-6-6-6-6-6-6-6---| 
D-1-1-1-1-1-1-1-1-1-1-1-1-1-1-1-1--6-6-6-6-6-6-6-6-6-6-6-6-6-6-6-6---| 
A-1-1-1-1-1-1-1-1-1-1-1-1-1-1-1-1--4-4-4-4-4-4-4-4-4-4-4-4-4-4-4-4---|
D-1-1-1-1-1-1-1-1-1-1-1-1-1-1-1-1------------------------------------|

e--------------------------------------------------------------------| 
b--------------------------------------------------------------------| 
G--------------------------------------------------------------------| 
D-6-6-6-6-6-6-6-6-6-6-6-6-6-6-6-6--3-3-3-3-3-3-3-3-3-3-3-3-3-3-3-3---| 
A-6-6-6-6-6-6-6-6-6-6-6-6-6-6-6-6--3-3-3-3-3-3-3-3-3-3-3-3-3-3-3-3---|
D-6-6-6-6-6-6-6-6-6-6-6-6-6-6-6-6--3-3-3-3-3-3-3-3-3-3-3-3-3-3-3-3---|

e-----------------------------------------------------| 
b-----------------------------------------------------| 
G----------------------------------7-7----------7-7---| 
D-1-1-1-1-1-1-1-1-1-1-1-1-1-1-1-1--7-7----------7-7---| 
A-1-1-1-1-1-1-1-1-1-1-1-1-1-1-1-1--5-5----------5-5---|
D-1-1-1-1-1-1-1-1-1-1-1-1-1-1-1-1---------------------|

Guitar 2
e--11--8---------11----8-9-8------8--6--8--9--6------------| 
b--------9-------------------------------------------------| 
G------------------------------------------------8---------| 
D----------------------------------------------------------| 
A----------------------------------------------------------|
D----------------------------------------------------------|

e--11--8---------11----8-9-8------8--6--8--9--6------------------------| 
b--------9-------------------------------------------9-11-9---8-9------| 
G------------------------------------------------8---------------------| 
D----------------------------------------------------------------------| 
A----------------------------------------------------------------------|
D----------------------------------------------------------------------|
Tap to rate this tab
# A B C D E F G H I J K L M N O P Q R S T U V W X Y Z