Song name
# A B C D E F G H I J K L M N O P Q R S T U V W X Y Z

Brand New - Aloc-acoc tab

Band: Brand New
Song: aloC-acoC ("Coca-Cola")
Tuning: Standard
Tabbed by:  ksulli10


0:00
e|--------------------------------------|
B|--------------------------------------|
G|--------------------------------------|
D|-------10-10--9---------(7)-----------| x2
A|-10-10-10-10-10------8-8-8---7-7-5-5--|
E|--8--8--------0------5-5-5---5-5-3-3--|


0:15 "There's blood and feathers..."
e|--------------------------------------|
B|--------------------------------------|
G|--------------------------------------|
D|-------10-10--9---------(7)-----------| x2
A|-10-10-10-10-10------8-8-8---7-7-5-5--|
E|--8--8--------0------5-5-5---5-5-3-3--|


0:30 "You seep in the windows..."
e|--------------------------|
B|--------------------------|
G|--------------------------|  
D|-(3)-(7)(5)------(3)(5)---|
A|--3---7--5--x3----3--5----|
E|--1---5--3--------1--3----|


1:00 "If it's by air..."
e|---------------------|
B|---------------------|
G|---------------------|
D|--(10)-(7)-(5)-------| x2
A|---10---7---5--------|
E|----8---5---3--------|


1:14 "You work late..."
e|---------------|
B|---------------|
G|---------------|  
D|--(3)-(7)(5)---| x2
A|---3---7--5----|
E|---1---5--3----|


1:30
e|--------------------------------------|
B|--------------------------------------|
G|--------------------------------------|
D|-------10-10--9---------(7)-----------| x2
A|-10-10-10-10-10------8-8-8---7-7-5-5--|
E|--8--8--------0------5-5-5---5-5-3-3--|


1:43 "They worked out..."
e|--------------------------------------|
B|--------------------------------------|
G|--------------------------------------|
D|-------10-10--9---------(7)-----------| x2
A|-10-10-10-10-10------8-8-8---7-7-5-5--|
E|--8--8--------0------5-5-5---5-5-3-3--|


1:58 "You walked out..."
e|--------------------------|
B|--------------------------|
G|--------------------------|  
D|-(3)-(7)(5)------(3)(5)---|
A|--3---7--5--x3----3--5----|
E|--1---5--3--------1--3----|


2:28 "If it's by sea..."
e|---------------------|
B|---------------------|
G|---------------------|
D|--(10)-(7)-(5)-------| x2
A|---10---7---5--------|
E|----8---5---3--------|


2:43 "Bless your beautiful eyes..."
e|---------------|
B|---------------|
G|---------------|  
D|--(3)-(7)(5)---| x2
A|---3---7--5----|
E|---1---5--3----|


2:56-3:00 (short interlude)
e|--------|
B|--------|
G|--------|  
D|--(5)---|
A|---5----|
E|---3----|


3:01 "If it's by air..."
e|---------------------|
B|---------------------|
G|---------------------|
D|--(10)-(7)-(5)-------| x2
A|---10---7---5--------|
E|----8---5---3--------|


3:18 "You work late..."
e|---------------|
B|---------------|
G|---------------|  
D|--(3)-(7)(5)---| x2
A|---3---7--5----|
E|---1---5--3----|



Lyrics:

There's blood and feathers on my dumb paws
You ain't nothin' but a dead duck
I ain't nothin' but a hound dog
You seep in the windows and vents
(And) I lay in the grass and I lose your scent
(Well) if God gave me grace then why aren't I graceful?
My joints are frozen, cold, and old, and idle

If it's by air, I don't want to know
(If) we all don't take cover
We're all gon'na fall back in love again
You work late to fight off your boss
Your patient dies, you take the night off

(Since) they've worked out all of the bugs
If we have enough money you can buy love
You walk out of your reception seating
(While) I sing, sing, sing, these ten lords still leaping
The mark on your breast from your baby teething
Give him my name if he is needing

If it's by sea, I don't want to know
(If) we all don't take cover
We're all gon'na fall back in love again
Bless your beautiful eyes
(And) curse your God when your friends die

If it's by air, I don't want to know
(If) we all don't take cover
We're all gon'na fall back in love again
You work late to fight off your boss
Your patient dies, you take the night off
Tap to rate this tab
# A B C D E F G H I J K L M N O P Q R S T U V W X Y Z