Guitaretab - guitar tabs
Song name
# A B C D E F G H I J K L M N O P Q R S T U V W X Y Z

Brand New - Gasoline Acoustic tab

Main verses:

e-0----0----0---0-------------------|
b-0----0----0---0-------------------|
g-0----0----0---0-------------------|
d-2---/9----4---5-------------------|
a-2---/10---5---7-------------------|
e-0---------------------------------| repeat

Chorus:

e----------------------------------|
b----------------------------------|
g----------------------------------|
d-7---5---3------------------------|
a-7---5---3------------------------|
e-5---3---1------------------------| back into verse

Sheís trying to put a fire out, she used gasoline
When the congregation gathered round,
Itís screaming Ďit wasnít meí.
[ Tab from: http://www.guitaretab.com/b/brand-new/189667.html ]
So thereís a sickness that is going round, no oneís got a vaccine.
Think we're treading holy water, I think itís time we all come clean.

I swear itís like trying to catch a ghost,
Like Iím dying to hold smoke.
It feels like Iím trying to catch a ghost,
Itís like Iím dying to hold smoke.

When the army had to hold the line, you were nowhere near the front;
Before the kids could tell the dog goodbye, you were loading up your gun.
I want to know what is the great divide,
I want to know what Iíve become.
Youíre thinking no one else is lonesome, you think that youíre the only one.

It feels like Iím jumping towards a train,
It feels like Iím jumping towards a train.

We all try to fake a way!

It feels like Iím jumping towards a train,
It feels like Iím jumping towards a train.

We all try to fake a way! 
Related for Gasoline Acoustic tab