Song name
# A B C D E F G H I J K L M N O P Q R S T U V W X Y Z

Brand New - At The Bottom tab

-------------------------------------------------------
                     AT THE BOTTOM - Brand New
-------------------------------------------------------
Tabbed by:Chris A

| /  slide up
| \  slide down
| h  hammer-on
| p  pull-off
| ~  vibrato
| +  harmonic
| x  Mute note

Intro
e|--------------------------------------------|
B|--------------------------------------------|
G|------0-------------5b-------2--0----0-0-0--|
D|---------0-0h2----2---------------0--2-2-0--|
A|--0-3-----------3----------3---------3-3-2--|
E|-------------------------1------------------|

e|----------12-----------------12-----12\-----|
B|--------12--12-------------12--12---12\-----|
G|------14------14---------14------14-14\-----|
D|----14----------14-----14-------------------|
A|--12--------------12-12---------------------|
E|--------------------------------------------|

Verse
e|--------------------------------------------|
B|------3-------------3-----------------------|
G|-------------4-------------4b---------------|
D|----2-----2-------2-----2-------------------|x7
A|--0-----0-------0-----0---------------------|
E|--------------------------------------------|

Pre-Chorus
e|--------------------------------------|
B|--------------------------------------|
G|--------------------------------------|
D|--5555555555555555-44444444-33333333--|
A|--5555555555555555-44444444-33333333--|
E|--3333333333333333-22222222-11111111--|

Verse2
e|-------------------------------------------|
B|------3-------------3----------------------|
G|-------------4b------------4b--------------|
D|----2-----2-------2-----2------------------|
A|--0-----0-------0-----0--------------------|
E|-------------------------------------------|

Pre-Chorus again

Chorus
e|---------------------------------------------------------------------|
B|---------------------------------------------------------------------|
G|---------------------------------------------------------------------|
D|-7777777777777777777777777777777-3333333333333333-55555555/66666666--|x2
A|-7777777777777777777777777777777-3333333333333333-55555555/66666666--|
E|-5555555555555555555555555555555-1111111111111111-33333333/44444444--|

Verse

Verse3
e|---------------------------12--|
B|------3--------------12-10-----|
G|-------------4-----------------|
D|----2-----2-------2------------|
A|--0-----0-------0--------------|
E|-------------------------------|

Versex4

Pre-Chorus

Chorusx2

Interlude

Solo
e|-----------------------------------------------|
B|--12-12-12-12-13-13-13-13-12h13/10-12p10-------|
G|-----------------------------------------12-9--|
D|-----------------------------------------------|
A|-----------------------------------------------|
E|-----------------------------------------------|

e|--------------------------10h12p10--10-----10--|
B|--12-12-12-12-13-13-13-13---------13--13-12----|
G|-----------------------------------------------|
D|-----------------------------------------------|
A|-----------------------------------------------|
E|-----------------------------------------------|

e|-----------------------------------------------|
B|--12-12-12-12-13-13-13-13-12h13/10-12p10-------|
G|-----------------------------------------12-9--|
D|-----------------------------------------------|
A|-----------------------------------------------|
E|-----------------------------------------------|

e|--------------------------------15-15-17-17-19-19-21b--|
B|--12-12-13-13-15-15-17-17-19-19------------------------|
G|-------------------------------------------------------|
D|-------------------------------------------------------|
A|-------------------------------------------------------|
E|-------------------------------------------------------|

Chorusx2

Versex4

Outro
e|-------|
B|-------|
G|----3--|
D|-------|
A|--2----|
E|-------|
Tap to rate this tab
# A B C D E F G H I J K L M N O P Q R S T U V W X Y Z