Song name
# A B C D E F G H I J K L M N O P Q R S T U V W X Y Z

Brand New - At The Bottom tab

Brand New
At The Bottom
Daisy

Standard Tuning

Intro:

e-----------------------------------------------------------------------|
b-----------------------------------------------------------------------|
g------------0--------------------------5b----------2br----0------------|
d------2-------------------------2---------------------------0--2-2-----|
a----0----------5--5/7--------3---------------3-----------------0-0---5-|
E---------------------------------------------1-----------------------3-|

e--------------12--------------------12--------12~-----------|
b------------12---12---------------12--12------12~-----------|
g---------14---------14----------14------14----12~-----------|
d------14--------------14------14----------------------------|
a----12------------------12--12------------------------------|
E------------------------------------------------------------|

Verse:

e----------------------------------------------------------------|
b--------3-------------------3-----------------------------------|
g------------------4---------------------4b----------------------|
d-----2---------2----------2----------2--------------------------|
a---0---------0----------0----------0----------------------------|
E----------------------------------------------------------------|

Well I make little lies...

e-----------------------------------------|
b-----------------------------------------|
g-----------------------------------------|
d----5-----------3--------2---------------|
a----5---x8------3---x4---2---x4----------|
E----3-----------1--------0---------------|

Then Verse x1

And if I wanted to die...

e-----------------------------------------|
b-----------------------------------------|
g-----------------------------------------|
d----5-----------3--------2---------------|
a----5---x8------3---x4---2---x4----------|
E----3-----------1--------0---------------|

Chorus x2:

e-----------------------------------------|
b-----------------------------------------|
g----2------------------------------------|
d----2---x16-----3--------5---------------|
a----0-----------3---x8---5---x8----------|
E----------------1--------3---------------|


Verse...

Some men die under a mountain...

e-----------------------------------------|
b-----------------------------------------|
g-----------------------------------------|
d----5-----------3--------2---------------|
a----5---x8------3---x4---2---x4----------|
E----3-----------1--------0---------------|


The break down sounds like some kind of harmony is going on
Tremolo picking the whole thing sounds good too, especially the last bar
And maybe it goes something like this:

Guitar 1:
e----------------------------------------------------------|
b--3/5--7h8p7--5/7\5--3/5---3/5--7h8p7h8/10\8-7h8----------|
g----------------------------------------------------------|
d----------------------------------------------------------|
a----------------------------------------------------------|
E----------------------------------------------------------|

e------------------------------------33335555777788881010101012b~-|
b-3/5--7h8p7--5/7\5--3/5-333355557777-----------------------------|
g-----------------------------------------------------------------|
d-----------------------------------------------------------------|
a-----------------------------------------------------------------|
E-----------------------------------------------------------------|

Guitar 2:
e-----------------------------------------------------------------|
b--8/10--12h13p12--10/12\10--8/10---8/10--12h13p12h13/15\13-12h13-|
g-----------------------------------------------------------------|
d-----------------------------------------------------------------|
a-----------------------------------------------------------------|
E-----------------------------------------------------------------|

e----------------------------------------------|
b-8/10--12h13p12--10/12\10--8/10---------------|
g----------------------------------------------|
d----------------------------------------------|
a----------------------------------------------|
E----------------------------------------------|

e---------------------88881010101012121212141414141515151517b~-|
b-88881010101012121212-----------------------------------------|
g--------------------------------------------------------------|
d--------------------------------------------------------------|
a--------------------------------------------------------------|
E--------------------------------------------------------------|

Chorus

Outro = Verse


Enjoy! Comments are welcome
Tap to rate this tab
# A B C D E F G H I J K L M N O P Q R S T U V W X Y Z