Guitaretab - guitar tabs
Song name
# A B C D E F G H I J K L M N O P Q R S T U V W X Y Z

Brand New - Bought A Bride tab

Bought A Bride
Brand New
Daisy (2009)

Tabbed By: Alex Barrera
Email: alexishxc1337@aol.com

This may differ from the live versions, itís based on the studio version which 
hasnít been released yet.


Intro:
e|-----------------------------------|
B|-----------------------------------|
G|-----------------------------------|
D|-----5---5---7---7---5---5---5-----|
A|-5h7---7---7---7---7---7---5---5---|
E|-----------------------------------|

Bass plays for first verse, then:
e|-----------------------------------|
B|-----------------------------------|
G|-----------------------------------|
D|-----0-------0-------0-------4-----|
A|---2---2---2---2---2---2---2---2---|
E|-0-------0-------0-------0---------|


e|-----------------------------------|
B|-----------------------------------|
G|-----------------------------------|
D|-----0-------0-------0-------4-----|
A|---2---2---2---2---2---2---2---2---|
E|-0-------0-------0-------3---------|


e|-----------------------------------|
B|-----------------------------------|
G|-----------------------------------|
D|-----5---5---7---7---5---5---5-----|
A|-5h7---7---7---7---7---7---5---5---|
E|-----------------------------------|

e|-11b12~------------------11b12~------------------|
B|---------10~-12b13b12~-----------10~-12----------|
G|----------------------------------------9w7w9~---|
D|-------------------------------------------------|
A|-------------------------------------------------|
E|-------------------------------------------------|

W here = Whammy bar dive/return

e|---------------------------------|
B|---------------------------------|
G|-----0-------0-------0-------0---|
D|---5---5---5---5---5---5---5-----|
A|-3-------3-------3-------3-------|
E|---------------------------------|

e|------------------------------------|
B|------------------------------------|
G|-----0-------0-------0-------0------|
D|---5---5---5---5---5---5---5--------|
A|-0-------0-------0------------------|
E|-------------------------3----------|

e|-----------------------------------|
B|-----------------------------------|
G|-----------------------------------|
D|-----5---5---7---7---5---5---5-----|
A|-5h7---7---7---7---7---7---5---5---|
E|-----------------------------------|

From what I can tell from the videos, Vin strums up between the nut and the tuning pegs, 
does a whammy dive.

[ Tab from: http://www.guitaretab.com/b/brand-new/195806.html ]
e|-----------------------------------|
B|-----------------------------------|
G|-----------------------------------|
D|-----5---5---7---7---5---5---5-----|
A|-5h7---7---7---7---7---7---5---5---|
E|-----------------------------------|

e|-11b12~------------------11b12~------------------|
B|---------10~-12b13b12~-----------10~-12----------|
G|----------------------------------------9w7w9~---|
D|-------------------------------------------------|
A|-------------------------------------------------|
E|-------------------------------------------------|

e|---------------------------------|
B|---------------------------------|
G|-----0-------0-------0-------0---|
D|---5---5---5---5---5---5---5-----|
A|-3-------3-------3-------3-------|
E|---------------------------------|

e|---------------------------------|
B|---------------------------------|
G|-----0-------0-------0-------0---|
D|---5---5---5---5---5---5---5-----|
A|-0-------0-------0---------------|
E|-------------------------3-------|

e|-----------------------------------|
B|-----------------------------------|
G|-----------------------------------|
D|-----5---5---7---7---5---5---5-----|
A|-5h7---7---7---7---7---7---5---5---|
E|-----------------------------------|


Ending:
e|---------------|
B|---------------|
G|-9-9-9\5-5-7---|
D|-9-9-9\5-5-7---|
A|-7-7-7\3-3-5---|
E|---------------|

e|-------10-------------------10-------12b13-12b13---|
B|-10h12----12-10-------10h12----12-10---------------|
G|----------------11-11------------------------------|
D|---------------------------------------------------|
A|---------------------------------------------------|
E|---------------------------------------------------|

e|---------------------------------|
B|---------------------------------|
G|-----0-------0-------0-------0---|
D|---5---5---5---5---5---5---5-----|
A|-3-------3-------3-------3-------|
E|---------------------------------|

e|---------------------------------|
B|---------------------------------|
G|-----0-------0-------0-------0---|
D|---5---5---5---5---5---5---5-----|
A|-0-------0-------0---------------|
E|-------------------------3-------|

A little improv with this scale:
e|-------10-------------------10-------12b13-12b13---|
B|-10h12----12-10-------10h12----12-10---------------|
G|----------------11-11------------------------------|
D|---------------------------------------------------|
A|---------------------------------------------------|
E|---------------------------------------------------|

While rhythm plays:
e|---------------|
B|---------------|
G|-9-9-9\5-5-7---|
D|-9-9-9\5-5-7---|
A|-7-7-7\3-3-5---|
E|---------------|

End on
e|-----|
B|-----|
G|-----|
D|-2---|
A|-2---|
E|-0---|
Related for Bought A Bride tab
Bought A Bride chords by Brand New