Song name
# A B C D E F G H I J K L M N O P Q R S T U V W X Y Z

Brand New - Soco Amaretto Lime tab

Tabbed by: Tee 23 Jay
Email: TJDude00@yahoo.com

i saw some tabs that weren't entirely correct so i decided to solve that by putting up a
correct tab
the strumming pattern isn't as constant (note, note, chord, note, note, note, chord) as 
intro
however i tabbed it pretty consistently for ease of reading and to avoid confusion.
i assure you these chords are correct. it is in DROP C# tuning and any tab saying 
is wrong.
this is my first tab also i might add. enjoy, post it elsewhere just give credit and
luck with this great song!

eb|--------------------------------------------------------------------|
Bb|--------------------------------------------------------------------|
Gb|-----7-------7-------7-------7--------------------------------------|
Db|-----7-------7-------7-------7-0------5-------5-7-----7-------7-----|
Ab|-5-5-5-5-5-5-5-5-5-5-5-5-5-5-5-0------5-5-5-5-5-5-----5-5-5-5-5-0---|
C#|----------------------------------5-5-5-5-5-5-5-5-5-5-5-5-5-5-5-0---|

eb|------------------------------------------------------------------|
Bb|------------------------------------------------------------------|
Gb|-----7-------7-------7-------7------------------------------------|
Db|-----7-------7-------7-------7-0-----5-------5-7------------------|
Ab|-5-5-5-5-5-5-5-5-5-5-5-5-5-5-5-0-----5-------5-5---------------0--|
C#|---------------------------------5-5-5-5-5-5-5-5---------------0--|

eb|--------------------------------------------------------------------|
Bb|--------------------------------------------------------------------|
Gb|-----7-------7-------7-------7--------------------------------------|
Db|-----7-------7-------7-------7-0------5-------5-7-----7-------7-----|
Ab|-5-5-5-5-5-5-5-5-5-5-5-5-5-5-5-0------5-5-5-5-5-5-----5-5-5-5-5-0---|
C#|----------------------------------5-5-5-5-5-5-5-5-5-5-5-5-5-5-5-0---|
      Passed out, on the overpass . . .

eb|-----------------------------------------------------------------------|
Bb|-----------------------------------------------------------------------|
Gb|-----7-------7-------7-------7-----------------------------------------|
Db|-----7-------7-------7-------7-0------5-------5-7-----7-------7--------|
Ab|-5-5-5-5-5-5-5-5-5-5-5-5-5-5-5-0------5-5-5-5-5-5-----5-5-5-5-5-/7-----|
C#|----------------------------------5-5-5-5-5-5-5-5-5-5-5-5-5-5-5-/7-----|
      Broken down from the bikes and bars . . .

eb|------------------------------------------------------------------|
Bb|------------------------------------------------------------------|
Gb|-------------------------------------7---------------7-------7----|
Db|-----7-------7-------7-------7-------7-------0-------7-------7----|
Ab|-----7-------7-------7-------7-0-5-5-5-5-5-5-0-5-5-5-5-------5-/7-|
C#|-7-7-7-7-7-7-7-7-7-7-7-7-7-7-7-0---------------5-5-5-5-5-5-5-5-/7-|
      You and me were kings . . .

eb|------------------------------------------------------|
Bb|------------------------------------------------------|
Gb|------------------------------------------------------|
Db|-----7-------7-7-5---5-------5------------------------|
Ab|-----7-------7-7-5---5-------5-0----------------------|
C#|-7-7-7-7-7-7-7-7-5-5-5-5-5-5-5-0----------------------|
    And tonight will go on forever . . .

eb|--------------------------------------------------------------------|
Bb|--------------------------------------------------------------------|
Gb|-----7-------7-------7-------7--------------------------------------|
Db|-----7-------7-------7-------7-0------5-------5-7-----7-------7-----|
Ab|-5-5-5-5-5-5-5-5-5-5-5-5-5-5-5-0------5-5-5-5-5-5-----5-5-5-5-5-0---|
C#|----------------------------------5-5-5-5-5-5-5-5-5-5-5-5-5-5-5-0---|
     Walk around this town . . . .

eb|-----------------------------------------------------------------------|
Bb|-----------------------------------------------------------------------|
Gb|-----7-------7-------7-------7-----------------------------------------|
Db|-----7-------7-------7-------7-0--5-5-5-------5-7-----7-------7--------|
Ab|-5-5-5-5-5-5-5-5-5-5-5-5-5-5-5-0--5-5-5-5-5-5-5-5-----5-5-5-5-5-/7-----|
C#|----------------------------------5-5-5-5-5-5-5-5-5-5-5-5-5-5-5-/7-----|
     Everybody wake up . . . .

eb|--------------------------------------------------------------------|
Bb|--------------------------------------------------------------------|
Gb|-------------------------------------7---------------7-------7-2----|
Db|-----7-------7-------7-------7-------7---------------7-------7-2----|
Ab|-----7-------7-------7-------7-0-5-5-5-5-5-5-0-5-5-5-5-------5-0----|
C#|-7-7-7-7-7-7-7-7-7-7-7-7-7-7-7-0-------------0-5-5-5-5-5-5-5-5------|
     And when i pass the bottle . . .

eb|---------------------------------------------------------|
Bb|---------------------------------------------------------|
Gb|-2-2-2-2-2-2-2-2-----0---0---0---0-----------------------|
Db|-2-2-2-2-2-2-2-2-(/4)---4---4---4---0--------------------|
Ab|-0-0-0-0-0-0-0-0-----------------------------------------|
C#|---------------------------------------------------------|

eb|----------------------------------------------------------------------|
Bb|----------------------------------------------------------------------|
Gb|-----7-------7-------7-------7-------7-------7-------7-------7--------|
Db|-----7-------7-------7-------7-------7-------7-------7-------7--------|
Ab|-----5-------5-------5-------5-0-----5-------5-------5-------5-0------|
C#|-5-5-5-5-5-5-5-5-5-5-5-5-5-5-5-0-4-4---4-4-4---4-4-4---4-4-4---0------|
      I'm gonna stay 18 forever . . .

eb|--------------------------------------------------------------------|
Bb|--------------------------------------------------------------------|
Gb|---------------------------------2-2-2-2-2-2-2-2-2-2-2-2-2-2-2-2----|
Db|-----2-------2-------2-------2---2-2-2-2-2-2-2-2-2-2-2-2-2-2-2-2----|
Ab|-----2-------2-------2-------2-0-0-0-0-0-0-0-0-0-0-0-0-0-0-0-0-0----|
C#|-2-2-2-2-2-2-2-2-2-2-2-2-2-2-2-0------------------------------------|
     And we'll never miss a party . . .

eb|----------------------------------------------------------------------|
Bb|----------------------------------------------------------------------|
Gb|-----7-------7-------7-------7-------7-------7-------7-------7--------|
Db|-----7-------7-------7-------7-------7-------7-------7-------7--------|
Ab|-----5-------5-------5-------5-0-----5-------5-------5-------5-0------|
C#|-5-5-5-5-5-5-5-5-5-5-5-5-5-5-5-0-4-4---4-4-4---4-4-4---4-4-4---0------|
     And we'll never have to listen

eb|-------------------------------------------------------------------------|
Bb|-------------------------------------------------------------------------|
Gb|---------------------------------2---------2-----------------------------|
Db|-----2-------2-------2-------2---2-----------------2---------------------|
Ab|-----2-------2-------2-------2-0-0---------------------------0-------0---|
C#|-2-2-2-2-2-2-2-2-2-2-2-2-2-2-2-0-----------------------------------------|
     Cuz its all been done

eb|--------------------------------------------------------------------|
Bb|--------------------------------------------------------------------|
Gb|-----7-------7-------7-------7--------------------------------------|
Db|-----7-------7-------7-------7-0------5-------5-7-----7-------7-----|
Ab|-5-5-5-5-5-5-5-5-5-5-5-5-5-5-5-0------5-5-5-5-5-5-----5-5-5-5-5-0---|
C#|----------------------------------5-5-5-5-5-5-5-5-5-5-5-5-5-5-5-0---|
      .... the hell out of this town

eb|-----------------------------------------------------------------------|
Bb|-----------------------------------------------------------------------|
Gb|-----7-------7-------7-------7-----------------------------------------|
Db|-----7-------7-------7-------7-0------5-------5-7-----7-------7--------|
Ab|-5-5-5-5-5-5-5-5-5-5-5-5-5-5-5-0------5-5-5-5-5-5-----5-5-5-5-5-/7-----|
C#|----------------------------------5-5-5-5-5-5-5-5-5-5-5-5-5-5-5-/7-----|
     The low fuel light's been n for days . . .

eb|--------------------------------------------------------------------|
Bb|--------------------------------------------------------------------|
Gb|-------------------------------------7---------------7-------7------|
Db|-----7-------7-------7-------7-------7---------------7-------7------|
Ab|-----7-------7-------7-------7-0-5-5-5-5-5-5-0-5-5-5-5-------5-0----|
C#|-7-7-7-7-7-7-7-7-7-7-7-7-7-7-7-0-------------0-5-5-5-5-5-5-5-5-0----|
     Nother 500!

eb|---------------------------------------------------------|
Bb|---------------------------------------------------------|
Gb|-2-2-2-2-2-2-2-2-----0---0---0---0-----------------------|
Db|-2-2-2-2-2-2-2-2-(/4)---4---4---4---0--------------------|
Ab|-0-0-0-0-0-0-0-0-----------------------------------------|
C#|---------------------------------------------------------|

eb|----------------------------------------------------------------------|
Bb|----------------------------------------------------------------------|
Gb|-----7-------7-------7-------7-------7-------7-------7-------7--------|
Db|-----7-------7-------7-------7-------7-------7-------7-------7--------|
Ab|-----5-------5-------5-------5-0-----5-------5-------5-------5-0------|
C#|-5-5-5-5-5-5-5-5-5-5-5-5-5-5-5-0-4-4---4-4-4---4-4-4---4-4-4---0------|
      I'm gonna stay 18 this  . . .

eb|--------------------------------------------------------------------|
Bb|--------------------------------------------------------------------|
Gb|---------------------------------2-2-2-2-2-2-2-2-2-2-2-2-2-2-2-2----|
Db|-----2-------2-------2-------2---2-2-2-2-2-2-2-2-2-2-2-2-2-2-2-2----|
Ab|-----2-------2-------2-------2-0-0-0-0-0-0-0-0-0-0-0-0-0-0-0-0-0----|
C#|-2-2-2-2-2-2-2-2-2-2-2-2-2-2-2-0------------------------------------|
     And we'll never miss a party

eb|----------------------------------------------------------------------|
Bb|----------------------------------------------------------------------|
Gb|-----7-------7-------7-------7-------7-------7-------7-------7--------|
Db|-----7-------7-------7-------7-------7-------7-------7-------7--------|
Ab|-----5-------5-------5-------5-0-----5-------5-------5-------5-0------|
C#|-5-5-5-5-5-5-5-5-5-5-5-5-5-5-5-0-4-4---4-4-4---4-4-4---4-4-4---0------|
     And we'll never have to listen

eb|---------------------------------------------------------------------|
Bb|---------------------------------------------------------------------|
Gb|---------------------------------2-2-2-2-2-2-2-2-2-2-2-2-2-2-2-2-----|
Db|-----2-------2-------2-------2---2-2-2-2-2-2-2-2-2-2-2-2-2-2-2-2-----|
Ab|-----2-------2-------2-------2-0-0-0-0-0-0-0-0-0-0-0-0-0-0-0-0-0-0---|
C#|-2-2-2-2-2-2-2-2-2-2-2-2-2-2-2-0---------------------------------0---|
     Cuz its all been done

eb|----------------------------------------------------------------------|
Bb|----------------------------------------------------------------------|
Gb|-----7-------7-------7-------7-------7-------7-------7-------7--------|
Db|-----7-------7-------7-------7-------7-------7-------7-------7--------|
Ab|-----5-------5-------5-------5-0-----5-------5-------5-------5-0------|
C#|-5-5-5-5-5-5-5-5-5-5-5-5-5-5-5-0-4-4---4-4-4---4-4-4---4-4-4---0------|
      I'm gonna stay like this forever . . .

eb|--------------------------------------------------------------------|
Bb|--------------------------------------------------------------------|
Gb|---------------------------------2-2-2-2-2-2-2-2-2-2-2-2-2-2-2-2----|
Db|-----2-------2-------2-------2---2-2-2-2-2-2-2-2-2-2-2-2-2-2-2-2----|
Ab|-----2-------2-------2-------2-0-0-0-0-0-0-0-0-0-0-0-0-0-0-0-0-0----|
C#|-2-2-2-2-2-2-2-2-2-2-2-2-2-2-2-0------------------------------------|
     And we'll never miss a party

eb|----------------------------------------------------------------------|
Bb|----------------------------------------------------------------------|
Gb|-----7-------7-------7-------7-------7-------7-------7-------7--------|
Db|-----7-------7-------7-------7-------7-------7-------7-------7--------|
Ab|-----5-------5-------5-------5-0-----5-------5-------5-------5-0------|
C#|-5-5-5-5-5-5-5-5-5-5-5-5-5-5-5-0-4-4---4-4-4---4-4-4---4-4-4---0------|
     And we'll never have to listen

eb|-----------------------------------------------------------------|
Bb|-----------------------------------------------------------------|
Gb|---------------------------------2---------2---------------------|
Db|-----2-------2-------2-------2---2-----------------2-------------|
Ab|-----2-------2-------2-------2-0-0---------------------------0---|
C#|-2-2-2-2-2-2-2-2-2-2-2-2-2-2-2-0---------------------------------|
     Cuz its all been done

              (softly)
eb|----------------------------------------------------------------------|
Bb|----------------------------------------------------------------------|
Gb|-----7-------7-------7-------7-------7-------7-------7-------7--------|
Db|-----7-------7-------7-------7-------7-------7-------7-------7--------|
Ab|-----5-------5-------5-------5-0-----5-------5-------5-------5-0------|
C#|-5-5-5-5-5-5-5-5-5-5-5-5-5-5-5-0-4-4---4-4-4---4-4-4---4-4-4---0------|
      just jealous . . .

eb|--------------------------------------------------------------------|
Bb|--------------------------------------------------------------------|
Gb|---------------------------------2-2-2-2-2-2-2-2-2-2-2-2-2-2-2-2-0--|
Db|-----2-------2-------2-------2---2-2-2-2-2-2-2-2-2-2-2-2-2-2-2-2-0--|
Ab|-----2-------2-------2-------2-0-0-0-0-0-0-0-0-0-0-0-0-0-0-0-0-0----|
C#|-2-2-2-2-2-2-2-2-2-2-2-2-2-2-2-0------------------------------------|


eb|---------------------------------------------------|
Bb|---------------------------------------------------|     Abrupt ending!
Gb|-----7-------7-------7-------7-------7-------------|     And thats it!
Db|-----7-------7-------7-------7-------7-------------|
Ab|-----5-------5-------5-------5-0-----5-------------|
C#|-5-5-5-5-5-5-5-5-5-5-5-5-5-5-5-0-4-4---4-4-4-------|
     Just jealous . .
Tap to rate this tab
# A B C D E F G H I J K L M N O P Q R S T U V W X Y Z