Song name
# A B C D E F G H I J K L M N O P Q R S T U V W X Y Z

Brand New - Vices tab

Vices
Brand New
Daisy (2009)

Tabbed by: Alex Barrera
Email: alexishxc1337@aol.com

Opening:
e|-----------------------|
B|-----------------------|
G|-5-5-5-5-5-5-5-5-5-5---|
D|-5-5-5-5-5-5-5-5-5-5---|
A|-3-3-3-3-3-3-3-3-3-3---|
E|-----------------------|


Vin:
e|-12----------15----12---12----------------14------|
B|----10-13------------------10-13----10-13----13---|
G|----------11----------9----------12---------------|
D|--------------------------------------------------|
A|--------------------------------------------------|
E|--------------------------------------------------|X2

Then:
e|-----------------------------------------|
B|-----------------------------------------|
G|-----------------------------------------|
D|-7-7-7-7-10-10-10------------------------|
A|------------------10-10-10-6-6-6-5-5-5---|
E|-----------------------------------------|X3

e|-----------------------------------------------|
B|-----------------------------------------------|
G|-----------------------------------------------|
D|-7-7-7-7-10-10-10------------------------------|
A|------------------10-10-10-10-10-10-10-10-12---|
E|-----------------------------------------------|

e|----------------------|
B|----------------------|
G|----------------------|
D|----------------------|
A|-10-10-10-10-10-12\---|
E|----------------------|X4

e|-----------------------|
B|-----------------------|
G|-5-5-5-5-5-5-5-5-5-5---|
D|-5-5-5-5-5-5-5-5-5-5---|
A|-3-3-3-3-3-3-3-3-3-3---|
E|-----------------------|

More of this:
e|-12----------15----12---12----------------14------|
B|----10-13------------------10-13----10-13----13---|
G|----------11----------9----------12---------------|
D|--------------------------------------------------|
A|--------------------------------------------------|
E|--------------------------------------------------|X2

e|-----------------------------------------|
B|-----------------------------------------|
G|-----------------------------------------|
D|-7-7-7-7-10-10-10------------------------|
A|------------------10-10-10-6-6-6-5-5-5---|
E|-----------------------------------------|X3

e|-----------------------------------------------|
B|-----------------------------------------------|
G|-----------------------------------------------|
D|-7-7-7-7-10-10-10------------------------------|
A|------------------10-10-10-10-10-10-10-10-12---|
E|-----------------------------------------------|

…goodbye to the ground:
e|----------------------|
B|----------------------|
G|----------------------|
D|----------------------|
A|-10-10-10-10-10-12\---|
E|----------------------|X2

Then this little fill:
e|--------------|
B|--------------|
G|--------------|
D|---------2~---|
A|-3p0----------|
E|-----3p0------|

e|----------------------|
B|----------------------|
G|----------------------|
D|----------------------|
A|-10-10-10-10-10-12\---|
E|----------------------|X3

e|-----------------------|
B|-----------------------|
G|-5-5-5-5-5-5-5-5-5-5---|
D|-5-5-5-5-5-5-5-5-5-5---|
A|-3-3-3-3-3-3-3-3-3-3---|
E|-----------------------|

e|-vin-wankery---|
B|-vin-wankery---|
G|-vin-wankery---|
D|-vin-wankery---|
A|-vin-wankery---|
E|-vin-wankery---|

e|----------------------|
B|----------------------|
G|----------------------|
D|-12-12-12-12-12-14----|
A|-10-10-10-10-10-12\---|
E|----------------------|

e|-----------------------|
B|-----------------------|
G|-5-5-5-5-5-5-5-5-5-5---|
D|-5-5-5-5-5-5-5-5-5-5---|
A|-3-3-3-3-3-3-3-3-3-3---|
E|-----------------------|


Even more of this:
e|-12----------15----12---12----------------14------|
B|----10-13------------------10-13----10-13----13---|
G|----------11----------9----------12---------------|
D|--------------------------------------------------|
A|--------------------------------------------------|
E|--------------------------------------------------|X2

e|-----------------------------------------|
B|-----------------------------------------|
G|-----------------------------------------|
D|-7-7-7-7-10-10-10------------------------|
A|------------------10-10-10-6-6-6-5-5-5---|
E|-----------------------------------------|X3

e|-----------------------------------------------|
B|-----------------------------------------------|
G|-----------------------------------------------|
D|-7-7-7-7-10-10-10------------------------------|
A|------------------10-10-10-10-10-10-10-10-12---|
E|-----------------------------------------------|

e|----------------------|
B|----------------------|
G|----------------------|
D|----------------------|
A|-10-10-10-10-10-12\---|
E|----------------------|X3

End on:

e|-------------------|
B|-------------------|
G|-5-5-5-5-5-5-5-5---|
D|-5-5-5-5-5-5-5-5---|
A|-3-3-3-3-3-3-3-3---|
E|-------------------|

Tap to rate this tab
 
# A B C D E F G H I J K L M N O P Q R S T U V W X Y Z