Song name
# A B C D E F G H I J K L M N O P Q R S T U V W X Y Z

Brand New - Daisy tab

-------------------------------------------------------------------------------
			     Daisy - Brand New
-------------------------------------------------------------------------------
Tabbed by: Zakk Roberts
Email: midkay@gmail.com

Tuning: Standard

e|---------------------------------------------|
B|------10---------10---------10--------10-----|
G|---------11---------11---------11--------11--|
D|---------------------------------------------|
A|-9-------------9----------9----------9-------|
E|---------------------------------------------|

e|---------------------------------------------|
B|------10---------10---------10---------10----|
G|---------11---------11---------11---------11-|
D|---------------------------------------------|
A|-12------------12---------12---------12------|
E|---------------------------------------------|

e|---------------------------------------------|
B|------10---------10---------10---------10----|
G|---------11---------11---------11---------11-|
D|-9-------------9----------9----------9-------|
A|---------------------------------------------|
E|---------------------------------------------|

e|---------------------------------------------|
B|------10---------10---------10---------10----|
G|---------11---------11---------11---------11-|
D|-12------------12------11------------11------|
A|---------------------------------------------|
E|---------------------------------------------|
Tap to rate this tab
# A B C D E F G H I J K L M N O P Q R S T U V W X Y Z