Song name
# A B C D E F G H I J K L M N O P Q R S T U V W X Y Z

Brand New - You Stole tab

Tuning: Standard
/=slide

Intro and most of the song

--------------------88-----88-----88---------|
--------------------88-----55-----66---------|
---------------------------------------------|
----7-------7--------------------------------|
----8-x8----0-x3-----------------------------|
---------------------------------------------|

Chorus some progression like this just listen

-----------------------------------------|
-----------------------------------------|
-----------------------------------------|
----7------5-----10----------------------|
----7------5-----10----------------------|
----5------3------8----------------------|

When it starts to pick up and get harder. Strum this

---------------------------------------------|
------------------10-------------------------|
------------9------x-------------------------|
---7--------7------7-------------------------|
---8-x8-----0-x8---0-------------------------|
---------------------------------------------|
                   ^   It does this part at some point in the hard part

Little Solo

---------------------------------------------|
-8--10--8--10--8--10--8-/-13--repeat x3------|
---------------------------------------------|
---------------------------------------------|
---------------------------------------------|
---------------------------------------------|
Then
---------------------------------------------|
-15-15/-13-13/-12-12/-10-10------------------|
---------------------------------------------|
---------------------------------------------|
---------------------------------------------|
---------------------------------------------|

And that's it. It repeats some parts, it's not hard to figure out though, have fun, 
song.
Tap to rate this tab
# A B C D E F G H I J K L M N O P Q R S T U V W X Y Z