Song name
# A B C D E F G H I J K L M N O P Q R S T U V W X Y Z

Brand New - You Stole tab

-------------------------------------------------------------------------------
			     You Stole – BRAND NEW
-------------------------------------------------------------------------------
Tabbed by: axethrower13
Email:letsplaysoccer13@yahoo.com

I do not claim this tab to be perfect, ive only had the cd for five days, and I don’t 
to spend all my time on one song. HOWEVER, this song is definitely one of the best on the 
Please email corrections, additions.

THERE ARE MANY, MANY LAYERS ON THIS SONG(CD) AND I KNOW I AMY NOT HAVE ALL OF THEM.

Tuning:Standard

Intro/Verse: 0:00-1:54 (light palm mute throughout)
e|-------------------------------------------------------------------|
B|-------------------------------------------------------------------|
G|------2-2-2-2-2-2-2-2--—2-2-2-2-2-2-2-2----------------------------|
D|------3-3-3-3-3-3-3-3—--2-2-2-2-2-2-2-2----------------------------|
A|------0-0-0-0-0-0-0-0—--0-0-0-0-0-0-0-0----------------------------|
E|-------------------------------------------------------------------|
Guitar 2 0:00-1:54
e|------------------------------8-8-8-8-8-8--------------------------|
B|------------------------------8-8-5-5-6-6--------------------------|
G|-------------------------------------------------------------------|
D|-------------------------------------------------------------------|
A|-------------------------------------------------------------------|
E|-------------------------------------------------------------------|
Guitar 3 0:57-1:53(that chord has lots of tremolo and im not sure what chord it is)
e|---------------------------------5---------------------------------|
B|---------------------------------3---------------------------------|
G|---------------------------------2---------------------------------|
D|---------3/5---2-2-2-2-2---------2---------------------------------|
A|------0------------------5-3-0-------------------------------------|
E|-------------------------------------------------------------------|

Chorus: 1:54-2:36
e|-------------------------------------------------------------------|
B|-------------------------------------------------------------------|
G|-------------------------------------------------------------------|
D|----7-----10-----5-----5------7-----5-----10-----10----------------|
A|----7x16—-10x16—-5x16—-5x16---7x16—-5x16-—10x16—-10x16-------------|
E|----5-----8------3-----3------5-----3-----8------8-----------------|

Intro/Verse: 2:36-3:33
Guitar 1 (from 2:55 to 3:33, heavy distortion, no palm mute)
e|-----------------------------------------|
B|-----------------------------------------|
G|------2-2-2-2-2-2-2-2--—2-2-2-2-2-2-2-2--|
D|------3-3-3-3-3-3-3-3—--2-2-2-2-2-2-2-2--|PM all with exception above
A|------0-0-0-0-0-0-0-0—--0-0-0-0-0-0-0-0--|
E|-----------------------------------------|
Guitar 2 2:36-2:55(that chord has lots of tremolo and im not sure what chord it is)
e|--------------------------------5-----------------------------------|
B|--------------------------------3-----------------------------------|
G|--------------------------------2-----------------------------------|
D|---------3/5---2-2-2-2-2--------2-----------------------------------|
A|------0------------------5-3-0--------------------------------------|
E|--------------------------------------------------------------------|


Guitar 3 2:59-3:14 (figure out your own timing on this part)
e|--------------------------------------------------------------------|
B|--------------------------------------------------------------------|
G|---------10vb10vb10vb10vb10vb10vb10vb9vb----------------------------|
D|--------------------------------------------------------------------|
A|--------------------------------------------------------------------|
E|--------------------------------------------------------------------|

Solo 3:14-3:33 (Guitar 1 continues after 3:33 under the solo)
Guitar 2
e|--------------------------------------------------------------------|
B|------|8-10v--8-10v--8-10v--8-10/13|x3--13-15v-15-13v-13-12v-12-10--|
G|--------------------------------------------------------------------|
D|--------------------------------------------------------------------|
A|--------------------------------------------------------------------|
E|--------------------------------------------------------------------|

Chorus: 3:33-4:13
e|--------------------------------------------------------------------|
B|--------------------------------------------------------------------|
G|--------------------------------------------------------------------|
D|----7-----10-----5-----5------7-----5-----10-----10-----------------|
A|----7x16—-10x16—-5x16—-5x16---7x16—-5x16-—10x16—-10x16--------------|
E|----5-----8------3-----3------5-----3-----8------8------------------|

Outro 4:13-4:53
Guitar 1
e|---------------------------------------------------------------------|
B|------|8-10v--8-10v--8-10v--8-10/13|x3--13-15v-15-13v-13-12v-12-10---|
G|---------------------------------------------------------------------|
D|---------------------------------------------------------------------|
A|---------------------------------------------------------------------|
E|---------------------------------------------------------------------|
Guitar 2 4:53-5:52 (that chord has lots of tremolo and im not sure what chord it is)
e|---------------------------------5------------------------------------|
B|---------------------------------3------------------------------------|
G|---------------------------------2------------------------------------|
D|---------3/5---2-2-2-2-2---------2------------------------------------|
A|------0------------------5-3-0----------------------------------------|
E|----------------------------------------------------------------------|

| /  slide up
| \  slide down
| h  hammer-on
| p  pull-off
| v  vibrato
| b  bend
| x  Mute note
===============================================================================
Tap to rate this tab
 
# A B C D E F G H I J K L M N O P Q R S T U V W X Y Z