Song name
# A B C D E F G H I J K L M N O P Q R S T U V W X Y Z

Brand New - Daisy tab

Tabbed by: raminile
email: offspring248@hotmail.com

This is my second Brand New tab. If you think its good check out the GP file I 
made for Degausser. 
I'm working on At the bottom for GP currently but I thought I might as well throw 
this together quick,
since I probably won't finish At the bottom in a while. Enjoy!

1st guitar: main riff
|---------------------------------------------------------------|
|----10-----10-----10-----10---------10-----10-----10-----10----|
|-------11-----11-----11-----11---------11-----11-----11-----11-|
|---------------------------------------------------------------|
|-9------------------------------12-----------------------------|
|---------------------------------------------------------------|

|-------------------------------------------------------------------|
|----10-----10-----10-----10---------10-----10---------10-----10----|
|-------11-----11-----11-----11---------11-----11---------11-----11-|
|-9------------------------------12----------------11---------------|
|-------------------------------------------------------------------|
|-------------------------------------------------------------------|


2nd guitar (2nd verse)
|-------17----------16----------12----12----12----|
|----14----14----14----14----14----14----14----14-|
|-14----------13----------11----------------------|
|-------------------------------------------------|
|-------------------------------------------------|
|-------------------------------------------------|

2rd Guitar: Before the break
|-----------------------------|
|-----------------------------|
|-11----11----9----9----11~---|
|----11----11---11---11-------|
|-----------------------------|
|-----------------------------|


*Break with main riff and boy talking*
Then back to the verse with..

I'm pretty sure it's the bass that plays this but here it is:
|-------------------------------------------------------|
|-------------------------------------------------------|
|-------------------------------------------------------|
|-------------------------------------------------------|
|-4/7---6-4----7/9---7-6----9/12---119----12/14---x14x--|
|-2/5---4-2----5/7---5-4----7/10---9-7----10/12---x12x--|


3rd Guitar. Play this half palmmuted.
Open up and bend more and more.
|-----------------------|
|-----------------------|
|-6-6-6^6^6^6^6^^6^^6^^-|
|-----------------------|
|-----------------------|
|-----------------------|

3rd guitar chorus riff: (everythings pretty much muted)
|--------------------------------------|
|--------------------------------------|
|--------------------------------------|
|--------------------------------------|
|--------------------------------------|
|-2-2-2-2/14-14-14-14--2-2-2/14-14-14--|

|--------------------------------------|
|--------------------------------------|
|--------------------------------------|
|--------------------------------------|
|--------------------------------------|
|-5-5-5-5/14-14-14-14--5-5-5/14-14-14--|

|--------------------------------------|
|--------------------------------------|
|--------------------------------------|
|--------------------------------------|
|--------------------------------------|
|-2-2-2-2/14-14-14-14--2-2-2/14-14-14--|

Then play this the last time:
|-----------------------|
|-----------------------|
|-6-6-6^6^6^6^6^^6^^6^^-|
|-----------------------|
|-----------------------|
|-----------------------| and repeat the whole thing 3 more times.


2nd guitar chorus (pretty much the same as the verse riff)
|-------17----------16----------12----12----------|
|----14----14----14----14----14----14----14----14-|
|-14----------13----------11----------------11----|
|-------------------------------------------------|
|-------------------------------------------------|
|-------------------------------------------------| x3
Then
|-----------------------------|
|-----------------------------|
|-9--9--11--11--9--9--11--11--|
|-----------------------------|
|-----------------------------|
|-----------------------------|


If you just want to play along in the chorus the main chords are:
*=play 16 times '=play 8 times
|------------------|
|------------------|
|-------4*-7'-6'---|
|-4*-7*-4*-7'-6'---|
|-4*-7*-2*-5'-4'---|
|-2*-5*------------|

Lyrics:

I'm a mountain that has been moved
I'm a river that is all dried up
I'm an ocean nothing floats on
I'm a sky that nothing wants to fly in
I'm a sun that doesn't burn hot
I'm a moon that never shows it's face
I'm a mouth that doesn't smile
I'm a word that no one ever wants to say...

I'm a mountain that has been moved
I'm a fugitive that has no legs to run
I'm a preacher with no pulpit
Spewing a sermon that goes on and on...

Well if we take all these things and we bury them fast
And we'll pray that they turn into seeds, to roots and then grass
It'd be all right, it's all right, it'd be easier that way
Or if the sky opened up and started pouring rain
Like he knew it was time to start things over again
It'd be all right, it's all right, it'd be easier that way          x2
Tap to rate this tab
# A B C D E F G H I J K L M N O P Q R S T U V W X Y Z