Song name
# A B C D E F G H I J K L M N O P Q R S T U V W X Y Z

Brand New - Bed tab

verse
e-------------------------------------------------------------------|
B-------------------------------------------------------------------|
G---------9-----9-----7-----9-----7---------------------------------|
D-------9-----9-----9-----9-----9-----------------------------------|
A-----7-----7-----7-----7-----7-------------------------------------|
E-------------------------------------------------------------------|

e-------------------------------------------------------------------|
B-------------------------------------------------------------------|
G---------7-----5-----------4-----2---------------------------------|
D-------7-----7-----7-----4-----4-----------------------------------|
A-----5-----5-----5-----2-----2-------------------------------------|
E-------------------------------------------------------------------|

chorus

Em G Am C

Bridge
e-----------------------------------------------------------------------|
B------------------1----------------------------------------------------|
G----------0-----2-------0----------------------------------------------|
D--------0-----2-------2---2-----2--------------------------------------|
A------2-----0-------3---------2---2------------------------------------|
E----3-----------------------0------------------------------------------|

G Am Em Em Am C Em G Am C

Outro
E5 G5
Tap to rate this tab
# A B C D E F G H I J K L M N O P Q R S T U V W X Y Z