Song name
# A B C D E F G H I J K L M N O P Q R S T U V W X Y Z

Brand New - Noro tab

			     Noro - Brand New


This is all but the solo cause it's weird or in another key or something that I didn't figure out.
 Overall this sounds right while playing along with the song, but there may be some differences.

s=slide

Quiet Acoustic Intro
|-15-15-15-14-10-10s12-12-12-10-|
|-------------------------------|
|-------------------------------|
|-------------------------------|
|-------------------------------|
|-------------------------------|x2


Main Verse
|------------------------------------------------------------------|
|--------------------------------8--------8--------8--------8------|
|------9------9-----9------9---------------------------------------|
|----9------9-----9------9---------9--------9--------9---------9---|
|--7------7------7-----7-------7-------7--------7--------7---------|
|------------------------------------------------------------------|x2


Verse Chords
                Em                                  C
|------x--------------------------------x----------------------------|
|------x--------------------------------x----------------------------|
|------0--------------------------------5----------------------------|
|------2--------------------------------5----------------------------|
|------2--------------------------------3----------------------------|
|------0--------------------------------x----------------------------|l

Listen to the song for the rhythm-it's a little strange, but the bass plays the same type of thing
 during the first chorus when it's easier to hear.
Tap to rate this tab
 
# A B C D E F G H I J K L M N O P Q R S T U V W X Y Z