Song name
# A B C D E F G H I J K L M N O P Q R S T U V W X Y Z

Brand New - Be Gone tab

-------------------------------------------------------------------------------
			 BE GONE - Brand New
-------------------------------------------------------------------------------

Tabbed by: Taylor Harris
Email:jtaylorharris@yahoo.com


      h - hammer on 
      p - pull off 
      b - bend string up
      r - release bend
      / - slide up
      \ - slide down
      ~ - vibrato
      x - mute note
     () - implied note
      * - natural harmonic

Tuning: Slightly lower than C standard [C F Bb Eb G c]

	The tuning is ultra low. It's essentially C standard.
	HOWEVER, it is actually like a quarter of a step lower.
	Tune to C and then tweak it all a little lower and you'll be close.
	It's right between B and C. 

Luckily, there are lots of open notes on the lowest string, 
so your best bet is to tune from that.

Keep this in mind when you rate it please.

Intro
c |-----/7--p0---------------0-----------------------------------|
G |------------3h5p3p0----3~p0-----------------------------------|
Eb|--------------------2~----------2h4p2p0-----------------------|
Bb|----------------------------------------2~--------------------|
F |--------------------------------------------------------------|
C |--0---------0----------------0------------------------[x2]----|

"It's getting hard to stand up..."
c |------0---0---0---0-0-----0-0---------------------------------|
G |---/5---5--/7~--7~--7b(8)-3-0---------------------------------|
Eb|-------------------------------0-0----------------------------|
Bb|--------------------------------------------------------------|
F |--------------------------------------------------------------|
C |----0------0--------0---------------------------------[x1]----|

c |-----/7--p0---------------0-----------------------------------|
G |------------3h5p3p0----3~p0-----------------------------------|
Eb|--------------------2~----------2h4p2p0-----------------------|
Bb|----------------------------------------2~--------------------|
F |--------------------------------------------------------------|
C |--0---------0----------------0------------------------[x1]----|

"He'll try to make my heart break..."
c |------0---0---0---0-0-----0-0---------------------------------|
G |---/5---5--/7~--7~--7b(8)-3-0---------------------------------|
Eb|-------------------------------0-0----------------------------|
Bb|--------------------------------------------------------------|
F |--------------------------------------------------------------|
C |----0------0--------0---------------------------------[x1]----|

"They're calling my name..."
c |-----/7--p0---------------0-----------------------------------|
G |------------3h5p3p0----3~p0-----------------------------------|
Eb|--------------------2~----------2h4p2p0-----------------------|
Bb|----------------------------------------2~--------------------|
F |--------------------------------------------------------------|
C |--0---------0----------------0------------------------[x2]----|

"They won't slow the car down..."
c |------0---0---0---0-0-----0-0---------------------------------|
G |---/5---5--/7~--7~--7b(8)-3-0---------------------------------|
Eb|-------------------------------0-0----------------------------|
Bb|--------------------------------------------------------------|
F |--------------------------------------------------------------|
C |----0------0--------0---------------------------------[x1]----|


"The one that is calling my name..."
c |------0---0---0---0-0-----0-0---------------------------------|
G |---/5---5--/7~--7~--7b(8)-3-0---------------------------------|
Eb|-------------------------------0-0----------------------------|
Bb|--------------------------------------------------------------|
F |--------------------------------------------------------------|
C |----0------0--------0---------------------------------[x1]----|

"They're calling my name..."
c |-----/7--p0---------------0----------------0------------------|
G |----------5-3h5p3p0----3~p0----------------0------------------|
Eb|--------------------2~---------2h4p2p0------------------------|
Bb|---------------------------------------2~---------------------|
F |--------------------------------------------------------------|
C |--0---------0----------------0------------------------[x3]----|

"Calling my name"
c |-----/7--p0---------------0------0----------------------------|
G |----------5-3h5p3p0----3~p0------0----------------------------|
Eb|--------------------2~---------------0------------------------|
Bb|--------------------------------------------------------------|
F |--------------------------------------------------------------|
C |--0---------0----------------0------------------------[x1]----|


Tap to rate this tab
 
# A B C D E F G H I J K L M N O P Q R S T U V W X Y Z