Song name
# A B C D E F G H I J K L M N O P Q R S T U V W X Y Z

Brand New - Noro tab

-------------------------------------------------------------------------------
			     NORO - Brand New
-------------------------------------------------------------------------------
Tabbed by: greenpic

enjoy

Acoustic intro:

e|------15-15-15-14-10-------12-12-12-10-|
B|---------------------------------------|
G|---------------------------------------| X2
D|---14------------------10--------------|
A|---------------------------------------|
E|---------------------------------------|

Electric clean intro/verse/chorus:

e|----------------------------------------------------------|
B|------0-----0-----0-----0-----0-------0-------0-------0---|
G|----4-----4-----4-----4-----12------12------12------12----|Repeated through
D|--2-----2-----2-----2-----10------10------10------10------|  whole verse
A|----------------------------------------------------------|
E|----------------------------------------------------------|

Fuzz distortion enters (not sure if the guitar plays along with the bass but here 
it is anyway, chords are there too if you like).

      E Minor                      C major
e|---------------------------------------------------------------------------|
B|---------------------------------------------------------------------------|
G|---------------------------------------------------------------------------|
D|---------------------------------------------------------------------------|
A|-----7-7-7-5-7---5-7---5--/10~---5-----------------------------------------|
E|-----------------------------------8-8-8-7-8--7-8--7-8~--------------------|


short interlude after the chorus

Lead guitar:

e|-------8--8--8-----8--8--8----|
B|----0--0--0--0--0--0--0--0----|
G|----5b-5b-5b-0--5b-5b-5b-0----|
D|------------------------------|
A|------------------------------|
E|------------------------------|

Rhythm guitar

     
e|------------------------------|
B|------------------------------|
G|------------------------------|
D|----77777777--3333--2222------|
A|----77777777--3333--2222------|
E|----55555555--5555--4444------|



Verse again (few slight changes:

e|---------------------------------------------------|
B|------0-----0-----0---------------0--0---0---0-----|
G|----4-----4-----4----------------------------------|X2
D|--2-----2-----2-----0h2-2-------5---5---5---5-5----|
A|--------------------------0-2-3---3---3----3---3---|
E|---------------------------------------------------|

then returns to the previous verse pattern

e|----------------------------------------------------------|
B|------0-----0-----0-----0-----0-------0-------0-------0---|
G|----4-----4-----4-----4-----12------12------12------12----|Repeated for the
D|--2-----2-----2-----2-----10------10------10------10------|  rest of the
A|----------------------------------------------------------|verse and chorus
E|----------------------------------------------------------|


Solo : WOOHOOO! ( this will be written with the solo and rhythym under it)

Lead guitar
e|-------------------------------------------|
B|--------------------------0----------------|
G|--------------------------0--7b(slow)-pb77-|
D|---10b-----9b----7b----22-0----------------|
A|-----------------------22-0----------------|
E|-----------------------00-0----------------|

Rhythm guitar
e|------------------------------------------|
B|------------------------------------------|
G|------------------------------------------|
D|---77777777-5555-2222---------------------|
A|---77777777-5555-2222--77757--57--5-10~---|
E|---55555555-3333-4444---------------------|


Lead guitar
e|---------------------555---555------------|
B|---------------------000---000------------|
G|------------------------------------------|
D|---9b------8b-------77775-77775-77777777--|
A|------------------------------------------|
E|------------------------------------------|

Rhythm guitar
e|------------------------------------------|
B|------------------------------------------|
G|------------------------------------------|
D|---77777777-55555555-44444444-33333333----|
A|---77777777-55555555-44444444-33333333----|
E|---55555555-33333333-22222222-11111111----|


then moves to a variation on this part... not to hard to figure out just listen very carefully

      E Minor                      C major
e|---------------------------------------------------------------------------|
B|---------------------------------------------------------------------------|
G|---------------------------------------------------------------------------|
D|---------------------------------------------------------------------------|
A|-----7-7-7-5-7---5-7---5--/10~---5-----------------------------------------|
E|-----------------------------------8-8-8-7-8--7-8--7-8~--------------------|



gotta love Brand New


| /  slide up
| \  slide down
| h  hammer-on
| p  pull-off
| ~  vibrato
| +  harmonic
| x  Mute note
===============================================================================
Tap to rate this tab
 
# A B C D E F G H I J K L M N O P Q R S T U V W X Y Z