Song name
# A B C D E F G H I J K L M N O P Q R S T U V W X Y Z

Brand New - Vices tab

This is the FULL song including the SOLO.. im sure its pretty damn close to accurate!

Submitted by: Ryan W
Email: RyanW20@hotmail.com

Tuning: drop D

Opening:
e|-----------------------|
B|-----------------------|
G|-5-5-5-5-5-5-5-5-5-5---|
D|-5-5-5-5-5-5-5-5-5-5---|
A|-3-3-3-3-3-3-3-3-3-3---|
D|-----------------------|

riff 1

e|-12----------15----12p0h12-------------------14---|
B|----10-13------------------10-13----------13------|
G|----------11--------------------11/12-------------|
D|--------------------------------------------------|
A|--------------------------------------------------|
E|--------------------------------------------------|x3

riff 2
on the 3rd time you go from D-5 straight into the slide
e|-----------------------------|-----------|
B|-----------------------------|-----------|
G|-2-2-2--5-5-5----------------|-----------|
D|--------------5-5-5-1-1-1-0-0|-5-5-5-5/7-|
A|-----------------------------|-----------|
D|--------------------------x3-|-------x3--|
P.M . . . . . . . . . . . . . .  . . . .

then
e|-----------------------|
B|-----------------------|
G|-5-5-5-5-5-5-5-5-5-5---|
D|-5-5-5-5-5-5-5-5-5-5---|
A|-3-3-3-3-3-3-3-3-3-3---|
E|-----------------------|

e|-12----------15----12p0h12-------------------14---|
B|----10-13------------------10-13----------13------|
G|----------11--------------------11/12-------------|
D|--------------------------------------------------|
A|--------------------------------------------------|
D|--------------------------------------------------|x3

on the 3rd time you go from D-5 straight into the slide
e|-----------------------------|-----------|
B|-----------------------------|-----------|
G|-2-2-2--5-5-5----------------|-----------|
D|--------------5-5-5-1-1-1-0-0|-5-5-5-5/7-|
A|-----------------------------|-----------|
E|--------------------------x3-|-------x3--|
P.M . . . . . . . . . . . . . .  . . . .
fill:
e|-----------|------------|
B|-----------|------------|
G|-----------|------------|
D|---------2/|5-5-5/7---x3|
A|-3p0-------|------------|
D|-----3p0---|------------|

Vin Solo:
On the last strum to a pinch harmonic with your thumb on the note and hold it, then 
theres about 3-4 sec of pick slides and finger slides i'll try to map it out... then it ends 
the same pinch harmonic.

e|---------------------------------------|
B|---------------------------------------|
G|-5-5-5-5-5-5-5-5-5-+5------------------|
D|-5-5-5-5-5-5-5-5-5-+5------------------|
A|-3-3-3-3-3-3-3-3-3-+3-x3 then pinch----|
D|---------------------------------------|

I'M not a pro guitar player so excuse my terminology if its not right.

youd still be holding the note here then slide

e|---------------------------------------------------------------|
B|---------------------------------------------------------------|
G|-+5/-----------------------------------------------------------|
D|-+5/-all the way up and back down then ------------------------|
A|-+3/---mix in a pickscrape or 2--------------------------------|
D|--------then pluck the same note without pushing down----------|

which then leads you to this slide basically slide from this note up and down from the 
note to get the effect

e|---------------------------------------------------------------|
B|---------------------------------------------------------------|
G|---------------------------------------------------------------|
D|----12/13/12/14/13/14/13/15/14/16/15/17/16/18/17/19~-----------|
A|--- -----------------------------------------------------------|
D|--basically back and forth up to 19----------------------------|


cont.

e|----------------------------------------------------------------------|
B|---------------------------------------------13-----------------------|
G|------/15-----14---12-----/14h15p14h15p14h15----15/1/5----5-5-5-5/7---|
D|19~/1-----------------------------------------------------------------|
A|--- ------------------------------------------------------------------|
D|----------------------------------------------------------------------|
P.M                                                         . . .

e|------------------------|
B|------------------------|
G|-5-5-5-5-5-5-5-5-5-+5---|
D|-5-5-5-5-5-5-5-5-5-+5---|
A|-3-3-3-3-3-3-3-3-3-+3---|
D|------------------------|


e|-12----------15----12p0h12-------------------14---|
B|----10-13------------------10-13----------13------|
G|----------11--------------------11/12-------------|
D|--------------------------------------------------|
A|--------------------------------------------------|
D|--------------------------------------------------|x3

e|-----------------------------|-----------|
B|-----------------------------|-----------|
G|-2-2-2--5-5-5----------------|-----------|
D|--------------5-5-5-1-1-1-0-0|-5-5-5-5/7-|
A|-----------------------------|-----------|
D|--------------------------x3-|-------x3--|
P.M . . . . . . . . . . . . . .  . . . .

e|------------------------|
B|------------------------|
G|-5-5-5-5-5-5-5-5-5-5----|
D|-5-5-5-5-5-5-5-5-5-5----|
A|-3-3-3-3-3-3-3-3-3-3----|
D|------------------------|





| /  slide up
| \  slide down
| h  hammer-on
| p  pull-off
| ~  vibrato
| +  harmonic
| x  Mute note
===============================================================================
Tap to rate this tab
# A B C D E F G H I J K L M N O P Q R S T U V W X Y Z