Song name
# A B C D E F G H I J K L M N O P Q R S T U V W X Y Z

Brand New - Noro tab

Hi everyone, Noro is a hidden gem of a song and
I want to get it out there as much as possible.
I sounded this out a few months ago, so heres
the song in its accurate form.

Tuning: Drop D

Intro
e)---15--15--15--14--10--12-12-12-10-----------------------------|
b)---------------------------------------------------------------|
g)----------------------------------------------------------- ---|2x
d)---------------------------------------------------------------|
a)---------------------------------------------------------------|
E)---------------------------------------------------------------|


e)---------------------------------------------------------------|
b)-------------------------------------------8---------8---------|
g)---------9-------9--------9--------9---------------------------|
d)------9-------9--------9--------9-------------9--------9-------|
a)---7-------7--------7--------7-----------7---------7-----------|
E)---------------------------------------------------------------|


e)--------------------------------------------------------------------|
b)----8------8--------------------------------------------------------|
g)--------------------------------------------------------------------|
d)------9------9------------------------------------------------------| 
                        
                    
Tap to rate this tab
 
# A B C D E F G H I J K L M N O P Q R S T U V W X Y Z