Song name
# A B C D E F G H I J K L M N O P Q R S T U V W X Y Z

Brand New - Daisy chords

Highlighted       Show chord diagrams
I thought I'd upload the chords to this since they're simple and the other chords 
to the song on this site weren't completely right.

Tabbed by MattRTS


Chords:
F#m -  244222
A -    x02220
D -    xx0232
E -    022100
E/G# - 476xxx
   

Intro/Main Riff (repeated throughout the song)
|---------------------------------------------------------------|
|----10-----10-----10-----10---------10-----10-----10-----10----|
|-------11-----11-----11-----11---------11-----11-----11-----11-|
|---------------------------------------------------------------|
|-9------------------------------12-----------------------------|
|---------------------------------------------------------------|

|-------------------------------------------------------------------|
|----10-----10-----10-----10---------10-----10---------10-----10----|
|-------11-----11-----11-----11---------11-----11---------11-----11-|
|-9------------------------------12----------------11---------------|
|-------------------------------------------------------------------|
|-------------------------------------------------------------------|



F#m                          
   I'm a mountain that has been moved
A                                            
   I'm a river that is all dried up
D                       
   I'm an ocean nothing floats on
E                 E/G#        
   I'm a sky that nothing wants to fly in
F#m                         
   I'm a sun that doesn't burn hot
A                        
   I'm a moon that never shows its face
D                           
   I'm a mouth that doesn't smile
E                         E/G#
   I'm a word that no one ever wants to say.
                                    
[Child Speaking]

F#m                          
   I'm a mountain that has been moved
A                         
   I'm a fugitive that has no legs to run
D                      
   I'm a preacher with no pulpit
E                        E/G#
   Spewing a sermon that goes on and on and on.


F#m
Well if we take all these things 
       
and we bury them fast
          A
And we'll pray that they turn into seeds, 
   
to roots and then grass
        D             
It'd be all right, it's all right, 
        E           E/G#
it'd be easier that way.
          F#m                      
Or if the sky opened up and started pouring rain
        A
Like he knew it was time 
                 
to start things over again
        D            
It'd be all right, it's all right, 
        E           E/G#
it'd be easier that way.

F#m
Well if we take all these things 
       
and we bury them fast
          A
And we'll pray that they turn into seeds, 
   
to roots and then grass
        D             
It'd be all right, it's all right, 
        E           E/G#
it'd be easier that way.
          F#m                      
Or if the sky opened up and started pouring rain
        A
Like he knew it was time 
                 
to start things over again
        D             
It'd be all right, it's all right, 
        E           E/G#
it'd be easier that way.

End on F#m or main riff.
Tap to rate this tab
# A B C D E F G H I J K L M N O P Q R S T U V W X Y Z