Song name
# A B C D E F G H I J K L M N O P Q R S T U V W X Y Z

Brand New - Mix Tape tab

All the previous intros were wrong from what i can tell so here you are...

eb-----------------------------------------------------------------|
Bb------2--------2--------2-------2-------2---------2-------2------|
Gb----2---2--------2--------2------ 2-------2-----2---2-------2----|
Db--2----------2--------2-------2-------2-------0---------0--------|
Ab-----------------------------------------------------------------|
Eb-----------------------------------------------------------------|

eb------------------------------------------------------------------|
Bb-----0--------0--------0------------------------------------------|
Gb-------2--------2--------2----------------------------------------|
Db---0--------0--------0--------------------------------------------|
Ab------------------------------------------------------------------|
Eb------------------------------------------------------------------|
Tap to rate this tab
 
# A B C D E F G H I J K L M N O P Q R S T U V W X Y Z