Brand New - Mix Tape tab

"Mix Tape" - Brand New

Tuning: Drop Db

---------------------------------[Guitar 1]---------------------------------

[Verse 1]
eb|-------------------------------------------------------------------|
Bb|-----2-----2-----2-----2-----2-------2-----2-----0-----0-----0-----|
Gb|---2---2-----2-----2-----2-----2---2-----2-----2---2-----2-----2---|
Db|-2-------2-----2-----2-----2-----0-----0-----0-------0-----0-------| (X8)
Ab|-------------------------------------------------------------------|
Db|-------------------------------------------------------------------|

[Enterlude Pt.1]
eb|---------------------------------0---0---0---0-0-0-0-0-0-0-0-0-0---|
Bb|---------------------------------3---3---3---3-3-3-3-3-3-3-3-3-3---|
Gb|-2---2---2---2-2-2-2-2-2-2-2-2-2-2---2---2---2-2-2-2-2-2-2-2-2-2---|
Db|-2---2---2---2-2-2-2-2-2-2-2-2-2-0---0---0---0-0-0-0-0-0-0-0-0-0---| (X2)
Ab|-0---0---0---0-0-0-0-0-0-0-0-0-0-0---0---0---0-0-0-0-0-0-0-0-0-0---|
Db|---------------------------------0---0---0---0-0-0-0-0-0-0-0-0-0---|

[Enterlude Pt.2]
eb|-------------------------------------0-----0-----0-----0-----0-0---|
Bb|-------------------------------------3-----3-----3-----3-----3-3---|
Gb|-----2-----2-----2-----2-----2-2-----2-----2-----2-----2-----2-2---|
Db|-----2-----2-----2-----2-----2-2-----0-----0-----0-----0-----0-0---| (X2)
Ab|-0-0-0-0-0-0-0-0-0-0-0-0-0-0-0-0-0-0-0-0-0-0-0-0-0-0-0-0-0-0-0-0---|
Db|---------------------------------0-0-0-0-0-0-0-0-0-0-0-0-0-0-0-0---|
P.M.- -   - -   - -   - -   - -     - -   - -   - -   - -   - - 


---------------------------------[Guitar 2]---------------------------------

[Verse 1]
Comes in the 8th time through
eb|-------------------------------------------------------------------|
Bb|-------------------------------------------------------------------|
Gb|---------------------------------2-2-2-2-2-2-2-2-2-2-2-2-2-2-2-2---|
Db|---------------------------------2-2-2-2-2-2-2-2-2-2-2-2-2-2-2-2---|
Ab|---------------------------------0-0-0-0-0-0-0-0-0-0-0-0-0-0-0-0---|
Db|-------------------------------------------------------------------|
                                P.M.- - - - -Strings gradually open up

[Enterlude Pt.1]
eb|-0---0---0---0-0-----------------0---0---0---0-0-------------------|
Bb|-2---2---2---2-2-----------------3---3---3---3-3-------------------|
Gb|-2---2---2---2-2-4\2---4\2---4\2-2---2---2---2-2-6-6-6-6-6-4-2-4---|
Db|-2---2---2---2-2-4\2---4\2---4\2-0---0---0---0-0-------------------| (X2)
Ab|-0---0---0---0-0-----------------0---0---0---0-0-------------------|
Db|---------------------------------0---0---0---0-0-------------------|

[Enterlude Pt.2]
eb|-------------------------------------0-----0-----------------------|
Bb|-------------------------------------3-----3-----------------------|
Gb|-----2-----2-----4\2---4\2---4\2-----2-----2-----6-6-6-6-6-4-2-4---|
Db|-----2-----2-----4\2---4\2---4\2-----0-----0-----------------------| (X2)
Ab|-0-0-0-0-0-0-0-0-----------------0-0-0-0-0-0-0-0-------------------|
Db|---------------------------------0-0-0-0-0-0-0-0-------------------|
P.M.- -   - -   - -                 - -   - -   - -             

[Verse 2]
eb|-0~~---------------------------0-----------------------------------|
Bb|-2~~---------------------------0-----------------------------------|
Gb|-2~~---------------------------0-----------------------------------|
Db|-2~~---------------------------------------------------------------| (X1)
Ab|-0~~---------------------------------------------------------------|
Db|-------------------------------------------------------------------|
    On the 4th and 6th time through the second verse, just play the Ab
                                                              (x-0-2-2-2-0)


-----------------------------[Order of Playing]-----------------------------

           Guitar 1                                        Guitar 2
          ----------                                      ----------
         Verse 1 X8                                      Verse 1 
  Enterlude Pt.1 X2                               Enterlude Pt.1 X2
  Enterlude Pt.2 X2                               Enterlude Pt.2 X2
           Verse X8                                      Verse 2 
  Enterlude Pt.1 {Until end}                             Verse 1
                                                  Enterlude Pt.1 {Until end}
----------------------------------------------------------------------------
Tap to rate this tab
 
# A B C D E F G H I J K L M N O P Q R S T U V W X Y Z