Song name
# A B C D E F G H I J K L M N O P Q R S T U V W X Y Z

Brand New - Broken Lungs Acoustic tab

Broken Lungs (acoustic) Thrice
Tuning: DGCFAD
Hammer on Pull off (hopo)


 Woke up to a brand new skyline....never would forget!
   Guitar 1 (Dustin)
       D G C F A D
       X O 2 2 1 O   Am
       X 3 2 O 1 O   C (hopo 2)
       3 2 O O 2 2   G


   Guitar 2 (Teppei)
      D G C F A D
      X O 2 2 1 O   Am
      X 3 2 O 1 O   C
                       |---------3---------------3------------|
                       |---O---O---O---O---O---O---O----------|
                       |-5---5-------5---5---5-------5-O------|
                       |--------------------------------------|
                       |--------------------------------------|
                       |--------------------------------------|

  Are we fools and cowards all...
   Guitar 1 (Dustin)
             D G C F A D
             X X 3 2 1 1   F
             X X 2 2 1 O   Am (hopo1)   x 2
     end on  X 3 2 O 1 O   C


   Guitar 2 (Teppei)
            D G C F A D
             1 3 3 2 1 1   FBAR
             5 7 7 6 5 5   ABAR   ~slide to FBAR after pause
      end on X 3 3 O 1 O   C


Instrumental
    Guitar 1 (Dustin)
solo    D G C F A D
           |-8p7-----------3---------------------|
           |------8s5--3-5--5---1h3-3-3-3p1p0----|
           |-------------------------------------|
           |-------------------------------------|
           |-------------------------------------|
           |-------------------------------------|


           |-8p7-----------3--------------------3--------|
           |------8s5--3-5--5---1s3-3-3-3---3s5---5------|
           |---------------------------------------------|
           |---------------------------------------------|
           |---------------------------------------------|
           |---------------------------------------------|
                                           repeat both line of solo from top

    Guitar 2 (Teppei)
          D G C F A D
          X O 2 2 1 O   Am
          X 3 2 O 1 O   C
          3 2 O O 2 2   G


 A fire burns beneath Manhattan...we'd always sing what must be sung...

         Repeat Verse

 Are we fools and cowards all...scales fall from our eyes..

         Repeat Chorus

 Cause we want answers...we want the truth.
    Guitar 1 (Dustin)
         D G C F A D
         X 2 2 O O O   Em
         X O 2 2 1 O   Am
         X 2 2 O O O   Em (ho1)
         X O 2 2 1 O   Am           x 2   strum and let ring on last two

    Guitar 2 (Teppei)
        D G C F A D
        X 2 2 O O O   Em
                  |---------3---------------3------------|
                  |---O---O---O---O---O---O---O----------|
                  |-5---5-------5---5---5-------5--O-----|
                  |--------------------------------------|
                  |--------------------------------------|
                  |--------------------------------------|


        X 2 2 O O O   Em-E (ho1)
                  |---------3---------------3-----------|
                  |---O---O---O---O---O---O---O---------|
                  |-5---5-------5---5---5-------5--O----|
                  |-------------------------------------|
                  |-------------------------------------|
                  |-------------------------------------|


        X 2 2 O O O   Em
                  |---------3---------------3-----------|
                  |---O---O---O---O---O---O---O---------|
                  |-5---5-------5---5---5-------5--O----|
                  |-------------------------------------|
                  |-------------------------------------|
                  |-------------------------------------|
      X 7 9 9 8 7   EmBAR
      X 9 7 8 7 7   B7BAR
      X X O 4 5 X   ?

Questions, Comments, Concerns, Corrections
Email: beareasonto@gmail.com



Link to video:  http://www.youtube.com/watch?v=dTE0rYrbF1A&feature=related
Tap to rate this tab
 
# A B C D E F G H I J K L M N O P Q R S T U V W X Y Z