Brand New - Seventy Times 7 tab

This is just the intro. Dropped a half step, hope this helps

0:10
----------------------------------------------------|
----------------------------------------------------|
--------9-----9h-11----9----------------------------|
--11-11----11---------------------------------------|
----------------------------------------------------|
----------------------------------------------------|

----------------------------------------------------|
--------10----10h12----10~--------------------------|
--11-11----11---------------------------------------|
----------------------------------------------------|
----------------------------------------------------|
----------------------------------------------------|

0 :15
----------------------------------------------------|
14--14-14-14-12-------------14-14-14-12-------------|
-----------------14----------------------14---------|
----------------------------------------------------|
----------------------------------------------------|
----------------------------------------------------|

----------------------------------------------------|
--------------10h12---------------------------------|
--------9h11----------9~----------------------------|
--9h11----------------------------------------------|
----------------------------------------------------|
----------------------------------------------------|

0:20
--------------------------------------------------------------------------------|
--------------------------------------------------------------------------12p---|
--------------------------------6h----------9-----------9h-11p9-----------------|
--------7h----------9-----------------------------------------------11----------|
--9-----------------------------------------------------------------------------|
--------------------------------------------------------------------------------|

--------------------|
10------------------|
------11p---9-------|
--------------------|
--------------------|
--------------------|

0:23
--------------------------------------------------------------------------12p---|
--------------------------------------------------------10h12p10----------------|
--------------------------------9h----------11----------------------11----------|
--------9h----------11----------------------------------------------------------|
--12----------------------------------------------------------------------------|
--------------------------------------------------------------------------------|

9-------------------|
------12h---10------|
--------------------|
--------------------|
--------------------|
--------------------|

0:26
--17----14-12-------------------------17----14-12-------------------------17----|
--------------14----------14----------------------14----------14----------------|
--------------------------------------------------------------------------------|
--------------------------------------------------------------------------------|
--------------------------------------------------------------------------------|
--------------------------------------------------------------------------------|

14----12------------|--19----17-17-14h17p14-12---------------------------|
--------------------|----------------------------------------------------|
--------------------|----------------------------------------------------|
--------------------|----------------------------------------------------|
--------------------|----------------------------------------------------|
--------------------|----------------------------------------------------|
Tap to rate this tab
 
# A B C D E F G H I J K L M N O P Q R S T U V W X Y Z