Song name
# A B C D E F G H I J K L M N O P Q R S T U V W X Y Z

Brand New - Seventy Times 7 tab

Brand new usually has half step or full step down tunings.  I used standard tuning for this tab.

E A D G B E

|--------------------------------------------------------------------------|
|------------------------------------9---9h11--9-9~---11/13-13-13p11-------|
|-------8------8h10--8-8~----8-8---8---------------------------------13-13-|
|-10-10----10--------------------------------------------------------------|
|--------------------------------------------------------------------------|
|--------------------------------------------------------------------------|



|--------------------------------------------------------------------------|
|13-13-13p11---------------------------------------------------------------|
|------------13-13----13------------13h15----------------------------------|
|------------------------10-10h11----------13~-----8-10---------13-13h15---|
|---------------------------------------------------------11-13------------|
|--------------------------------------------------------------------------|


|------------------------------------------------16------------16----------|
|--------------------------------------16-14-14----18-18-16-------18-18-16-|
|---15-13-------------------13h15-13-13----------------------18------------|
|13--------13----13-15-17-18-----------------------------------------------|
|-------------13-----------------------------------------------------------|
|--------------------------------------------------------------------------|


|-----16----------18-16-15h16p13-13h15p11-11~-|
|--------18-18-18-----------------------------|
|-18------------------------------------------|
|---------------------------------------------|
|---------------------------------------------|
|---------------------------------------------|

Any questions email joecar10@hotmail.com.

-joe.
Tap to rate this tab
 
# A B C D E F G H I J K L M N O P Q R S T U V W X Y Z