Song name
# A B C D E F G H I J K L M N O P Q R S T U V W X Y Z

Brand New - Jaws Theme Swimming tab

Help us improve GuitareTab! Take a short survey!
hey its punkdude969 well here
more of brand new....here you go..

INTRO/VERSE
eb[--------------------------------------------------------x
Bb[-----33------33-------33------55---------33-------33----5
Gb[-----44------44-------44------44---------44-------44----4
Db[--------------------------------------------------------x
Ab[-0h2-----2p0------------------------0h2-------2p0-------x
Eb[------------------0h3-----3\2---------------------------3

PRE_CHORUS
eb[-5--------
Bb[-5----5---
Gb[------4---
Db[----------
Ab[----------
Eb[----------


CHORUS
eb[----------------------------------
Bb[----------------------------------
Gb[-----------------44444444444444444
Db[-555555555555555744444444444444444
Ab[-555555555555555720202020202020202
Eb[-3030303030303035-----------------

part 2 of chorus
eb[------------------
Bb[------------------
Gb[----------77777777
Db[-55555555777777777
Ab[-55555555755555555
Eb[-333333335--------

interlude
eb[---------------------------
Bb[---------------------------
Gb[---------------------------
Db[---------------------------
Ab[-9-9-9-5-5-5-2-2-2-2-2-2-7-
Eb[-7-7-7-3-3-3-0-0-0-0-0-0-5-
Related for Jaws Theme Swimming tab