Song name
# A B C D E F G H I J K L M N O P Q R S T U V W X Y Z

Brand New - The Quiet Things That No One Ever Knows tab

----------------------------------------------------------------------------
              The Quiet Things that No One Ever Knows - Brand New
                                Deja Entendu(2003)   
----------------------------------------------------------------------------
tabbed by: JesseLaceyIsGod
ilikesubs123@aol.com
_i'm pretty sure this is 100% accurate :]
                    

Lead Guitar = Vinnie (eBGDAE-standard) - mostly clean
Rhythym Guitar/Vocals = Jesse (eBGDAE-standard) - distortion whole song
Bass = Garrett (GDAE-standard) - finger


Intro (clean)
Vinnie:
e|-----3p2--2~---|-----3p2--0~---|-----3p2--2~---|-----3p2--2~---3h5-|
B|--------3----3-|--------3----3-|--------3----3-|--------3----3-----|
G|---------------|---------------|---------------|-------------------|
D|---------------|---------------|---------------|-0~~---------------|
A|---------------|---------------|-3~~-----------|-------------------|
E|-3~~-----------|-0~~-----------|---------------|-------------------|

(0:11)
Vinnie:
e|-------------------------------------------------|
B|-------------15----------------------15----------|
G|-11-12-11-12----12-11-12-11-12-11-12----12-11-12-|
D|-------------------------------------------------|
A|-------------------------------------------------|
E|-------------------------------------------------|
Jesse:
e|-------------------------------------------------|
B|-------------------------------------------------|
G|-------------------------------------------------|
D|-5--5--5--5--5--5--5--5--5--5--5--5--5--5--5--5--|
A|-5--5--5--5--5--5--5--5--5--5--5--5--5--5--5--5--|
E|-3--3--3--3--3--3--3--3--3--3--3--3--3--3--3--3--|
Garrett:
G|-------------------------------------------------|
D|-------------------------------------------------|
A|-------------------------------------------------|
E|-3--3--3--3--3--3--3--3--3--3--3--3--3--3--3--3--|

(0:14)
Vinnie:
e|-------------------------------------------------|
B|-------------15----------------------15----------|
G|-11-12-11-12----12-11-12-11-12-11-12----12-11-12-|
D|-------------------------------------------------|
A|-------------------------------------------------|
E|-------------------------------------------------|
Jesse:
e|-------------------------------------------------|
B|-------------------------------------------------|
G|-------------------------------------------------|
D|-2--2--2--2--2--2--2--2--2--2--2--2--2--2--2--2--|
A|-2--2--2--2--2--2--2--2--2--2--2--2--2--2--2--2--|
E|-0--0--0--0--0--0--0--0--0--0--0--0--0--0--0--0--|
Garrett:
G|-------------------------------------------------|
D|-------------------------------------------------|
A|-------------------------------------------------|
E|-0--0--0--0--0--0--0--0--0--0--0--0--0--0--0--0--|

(0:17)
Vinnie:
e|-------------14----------------------14----------|
B|-12-13-12-13----13-12-13-12-13-12-13----13-12-13-|
G|-------------------------------------------------|
D|-------------------------------------------------|
A|-------------------------------------------------|
E|-------------------------------------------------|
Jesse:
e|-------------------------------------------------|
B|-------------------------------------------------|
G|-5--5--5--5--5--5--5--5--5--5--5--5--5--5--5--5--|
D|-5--5--5--5--5--5--5--5--5--5--5--5--5--5--5--5--|
A|-3--3--3--3--3--3--3--3--3--3--3--3--3--3--3--3--|
E|-------------------------------------------------|
Garrett:
G|-------------------------------------------------|
D|-------------------------------------------------|
A|-3--3--3--3--3--3--3--3--3--3--3--3--3--3--3--3--|
E|-------------------------------------------------|

(0:20)
Vinnie:
e|-------------------------------------------------|
B|-------------15----------------------15----------|
G|-11-12-11-12----12-11-12-11-12-11-12----12-11-12-|
D|-------------------------------------------------|
A|-------------------------------------------------|
E|-------------------------------------------------|
Jesse:
e|-------------------------------------------------|
B|-------------------------------------------------|
G|-7--7--7--7--7--7--7--7--7--7--7--7--7--7--7--7--|
D|-7--7--7--7--7--7--7--7--7--7--7--7--7--7--7--7--|
A|-5--5--5--5--5--5--5--5--5--5--5--5--5--5--5--5--|
E|-------------------------------------------------|
Garrett:
G|-------------------------------------------------|
D|-------------------------------------------------|
A|-5--5--5--5--5--5--5--5--5--5--5--5--5--5--5--5--|
E|-------------------------------------------------|

(0:23)
Vinnie:
e|-------------------------------------------------|
B|-------------15----------------------15----------|
G|-11-12-11-12----12-11-12-11-12-11-12----12-11-12-|
D|-------------------------------------------------|
A|-------------------------------------------------|
E|-------------------------------------------------|
Jesse:
e|-------------------------------------------------|
B|-------------------------------------------------|
G|-------------------------------------------------|
D|-5--5--5--5--5--5--5--5--5--5--5--5--5--5--5--5--|
A|-5--5--5--5--5--5--5--5--5--5--5--5--5--5--5--5--|
E|-3--3--3--3--3--3--3--3--3--3--3--3--3--3--3--3--|
Garrett:
G|-------------------------------------------------|
D|-------------------------------------------------|
A|-------------------------------------------------|
E|-3--3--3--3--3--3--3--3--3--3--3--3--3--3--3--3--|

(0:26)
Vinnie:
e|-------------14----------------------14----------|
B|-12-13-12-13----13-12-13-12-13-12-13----13-12-13-|
G|-------------------------------------------------|
D|-------------------------------------------------|
A|-------------------------------------------------|
E|-------------------------------------------------|
Jesse:
e|-------------------------------------------------|
B|-------------------------------------------------|
G|-------------------------------------------------|
D|-2--2--2--2--2--2--2--2--2--2--2--2--2--2--2--2--|
A|-2--2--2--2--2--2--2--2--2--2--2--2--2--2--2--2--|
E|-0--0--0--0--0--0--0--0--0--0--0--0--0--0--0--0--|
Garrett:
G|-------------------------------------------------|
D|-------------------------------------------------|
A|-------------------------------------------------|
E|-0--0--0--0--0--0--0--0--0--0--0--0--0--0--0--0--|

(0:29)
Vinnie:
e|-------------------------------------------------|
B|-------------15----------------------15----------|
G|-11-12-11-12----12-11-12-11-12-11-12----12-11-12-|
D|-------------------------------------------------|
A|-------------------------------------------------|
E|-------------------------------------------------|
Jesse:
e|-------------------------------------------------|
B|-------------------------------------------------|
G|-5--5--5--5--5--5--5--5--5--5--5--5--5--5--5--5--|
D|-5--5--5--5--5--5--5--5--5--5--5--5--5--5--5--5--|
A|-3--3--3--3--3--3--3--3--3--3--3--3--3--3--3--3--|
E|-------------------------------------------------|
Garrett:
G|-------------------------------------------------|
D|-------------------------------------------------|
A|-3--3--3--3--3--3--3--3--3--3--3--3--3--3--3--3--|
E|-------------------------------------------------|

(0:32)
Vinnie:
e|-------------14----------------------14----------|
B|-12-13-12-13----13-12-13-12-13-12-13----13-12-13-|
G|-------------------------------------------------|
D|-------------------------------------------------|
A|-------------------------------------------------|
E|-------------------------------------------------|
Jesse:
e|-------------------------------------------------|
B|-------------------------------------------------|
G|-7--7--7--7--7--7--7--7--7--7--7--7--7--7--7--7--|
D|-7--7--7--7--7--7--7--7--7--7--7--7--7--7--7--7--|
A|-5--5--5--5--5--5--5--5--5--5--5--5--5--5--5--5--|
E|-------------------------------------------------|
Garrett:
G|-------------------------------------------------|
D|-------------------------------------------------|
A|-5--5--5--5--5--5--5--5--5--5--5--5--5--5--5--5--|
E|-------------------------------------------------|


(0:35)
Jesse:
e|----------------|
B|----------------|
G|----------------|
D|----------------|
A|-5--5-----------|
E|-3--3--------10~|
Garrett:
G|----------------|
D|----------------|
A|----------------|
E|-3--3--------10~|



Verse 1
(0:36)
Jesse:
e|-------------------------------------------------|
B|-------------------------------------------------|
G|-------------------------------------------------|
D|-------------------------------------------------|
A|-5--5--5--5--5--5--5--5--5--5--5--5--5--5--5--5--|
E|-3--3--3--3--3--3--3--3--3--3--3--3--3--3--3--3--|
Garrett:
G|-------------------------------------------------|
D|-------------------------------------------------|
A|-------------------------------------------------|
E|-3--3--3--3--3--3--3--3--3--3--3--3--3--3--3--3--|
"We saw the western coast..."


(0:39)
Jesse:
e|-------------------------------------------------|
B|-------------------------------------------------|
G|-------------------------------------------------|
D|-5--5--5--5--5--5--5--5--5--5--5--5--5--5--5--5--|
A|-3--3--3--3--3--3--3--3--3--3--3--3--3--3--3--3--|
E|-------------------------------------------------|
Garrett:
G|-------------------------------------------------|
D|-------------------------------------------------|
A|-3--3--3--3--3--3--3--3--3--3--3--3--3--3--3--3--|
E|-------------------------------------------------|
"I saw the hospital..."


(0:42)
Jesse:
e|-------------------------------------------------|
B|-------------------------------------------------|
G|-------------------------------------------------|
D|-------------------------------------------------|
A|-2--2--2--2--2--2--2--2--2--2--2--2--2--2--2--2--|
E|-0--0--0--0--0--0--0--0--0--0--0--0--0--0--0--0--|
Garrett:
G|-------------------------------------------------|
D|-------------------------------------------------|
A|-------------------------------------------------|
E|-0--0--0--0--0--0--0--0--0--0--0--0--0--0--0--0--|
"Nursed the shoreline like a wound..."


(0:45)
Jesse:
e|-------------------------------------------------|
B|-------------------------------------------------|
G|-------------------------------------------------|
D|-5--5--5--5--5--5--5--5--5--5--5--5--5--5--5--5--|
A|-3--3--3--3--3--3--3--3--3--3--3--3--3--3--3--3--|
E|-------------------------------------------------|
Garrett:
G|-------------------------------------------------|
D|-------------------------------------------------|
A|-3--3--3--3--3--3--3--3--3--3--3--3--3--3--3--3--|
E|-------------------------------------------------|


(0:48)
Jesse:
e|-------------------------------------------------|
B|-------------------------------------------------|
G|-------------------------------------------------|
D|-------------------------------------------------|
A|-5--5--5--5--5--5--5--5--5--5--5--5--5--5--5--5--|
E|-3--3--3--3--3--3--3--3--3--3--3--3--3--3--3--3--|
Garrett:
G|-------------------------------------------------|
D|-------------------------------------------------|
A|-------------------------------------------------|
E|-3--3--3--3--3--3--3--3--3--3--3--3--3--3--3--3--|
Vinnie:(distorted)
e|-------------------------------------------------|
B|-------------------------------------------------|
G|-------------------------------------------------|
D|-------------------------5-----4-----5-----------|
A|----------------------------5-----5-----5--------|
E|-------------------------------------------------|
"Reports of lover's tryst..."

(0:51)
Jesse:
e|-------------------------------------------------|
B|-------------------------------------------------|
G|-------------------------------------------------|
D|-5--5--5--5--5--5--5--5--5--5--5--5--5--5--5--5--|
A|-3--3--3--3--3--3--3--3--3--3--3--3--3--3--3--3--|
E|-------------------------------------------------|
Garrett:
G|-------------------------------------------------|
D|-------------------------------------------------|
A|-3--3--3--3--3--3--3--3--3--3--3--3--3--3--3--3--|
E|-------------------------------------------------|
Vinnie:(distorted)
e|-------------------------------------------------|
B|-------------------------------------------------|
G|-------------------------------------------------|
D|-------------------------5-----4-----5-----------|
A|----------------------------5-----5-----5--------|
E|-------------------------------------------------|
"were neither clear nor descript."


(0:54)
Jesse:
e|-------------------------------------------------|
B|-------------------------------------------------|
G|-------------------------------------------------|
D|-------------------------------------------------|
A|-2--2--2--2--2--2--2--2--2--2--2--2--2--2--2--2--|
E|-0--0--0--0--0--0--0--0--0--0--0--0--0--0--0--0--|
Garrett:
G|-------------------------------------------------|
D|-------------------------------------------------|
A|-------------------------------------------------|
E|-0--0--0--0--0--0--0--0--0--0--0--0--0--0--0--0--|
Vinnie:(distorted)
e|-------------------------------------------------|
B|-------------------------------------------------|
G|-------------------------------------------------|
D|-------------------------5-----4-----5-----------|
A|----------------------------5-----5-----5--------|
E|-------------------------------------------------|
"We kept it safe and slow, the quiet..."


(0:57)
Jesse:
e|-------------------------------------------------|
B|-------------------------------------------------|
G|-------------------------------------------------|
D|-5--5--5--5--5--5--5--5--5--5--5--5--5--5--5--5--|
A|-3--3--3--3--3--3--3--3--3--3--3--3--3--3--3--3--|
E|-------------------------------------------------|
Garrett:
G|-------------------------------------------------|
D|-------------------------------------------------|
A|-3--3--3--3--3--3--3--3--3--3--3--3--3--3--3--3--|
E|-------------------------------------------------|
Vinnie:(distorted)
e|-------------------------------------------------|
B|-------------------------------------------------|
G|-------------------------------------------------|
D|-------------------------5-----4-----5-----------|
A|----------------------------5-----5-----5--------|
E|-------------------------------------------------|
"...things that no one ever knows."



Chorus
(1:00)
Vinnie:
e|-------------------------------------------------|
B|-------------15----------------------15----------|
G|-11-12-11-12----12-11-12-11-12-11-12----12-11-12-|
D|-------------------------------------------------|
A|-------------------------------------------------|
E|-------------------------------------------------|
Jesse:
e|-------------------------------------------------|
B|-------------------------------------------------|
G|-------------------------------------------------|
D|-5--5--5--5--5--5--5--5--5--5--5--5--5--5--5--5--|
A|-5--5--5--5--5--5--5--5--5--5--5--5--5--5--5--5--|
E|-3--3--3--3--3--3--3--3--3--3--3--3--3--3--3--3--|
Garrett:
G|-------------------------------------------------|
D|-------------------------------------------------|
A|-------------------------------------------------|
E|-3--3--3--3--3--3--3--3--3--3--3--3--3--3--3--3--|
"So keep the blood in your head (and keep your feet on the ground)"

Vinnie:
e|-------------14----------------------14----------|
B|-12-13-12-13----13-12-13-12-13-12-13----13-12-13-|
G|-------------------------------------------------|
D|-------------------------------------------------|
A|-------------------------------------------------|
E|-------------------------------------------------|
Jesse:
e|-------------------------------------------------|
B|-------------------------------------------------|
G|-------------------------------------------------|
D|-2--2--2--2--2--2--2--2--2--2--2--2--2--2--2--2--|
A|-2--2--2--2--2--2--2--2--2--2--2--2--2--2--2--2--|
E|-0--0--0--0--0--0--0--0--0--0--0--0--0--0--0--0--|
Garrett:
G|-------------------------------------------------|
D|-------------------------------------------------|
A|-------------------------------------------------|
E|-0--0--0--0--0--0--0--0--0--0--0--0--0--0--0--0--|
"If today's the day it gets tired (today's the day we drop out)"

Vinnie:
e|-------------------------------------------------|
B|-------------15----------------------15----------|
G|-11-12-11-12----12-11-12-11-12-11-12----12-11-12-|
D|-------------------------------------------------|
A|-------------------------------------------------|
E|-------------------------------------------------|
Jesse:
e|-------------------------------------------------|
B|-------------------------------------------------|
G|-5--5--5--5--5--5--5--5--5--5--5--5--5--5--5--5--|
D|-5--5--5--5--5--5--5--5--5--5--5--5--5--5--5--5--|
A|-3--3--3--3--3--3--3--3--3--3--3--3--3--3--3--3--|
E|-------------------------------------------------|
Garrett:
G|-------------------------------------------------|
D|-------------------------------------------------|
A|-3--3--3--3--3--3--3--3--3--3--3--3--3--3--3--3--|
E|-------------------------------------------------|
"Gave up my body and bed (all for an empty hotel)"

Vinnie:
e|-------------14----------------------14----------|
B|-12-13-12-13----13-12-13-12-13-12-13----13-12-13-|
G|-------------------------------------------------|
D|-------------------------------------------------|
A|-------------------------------------------------|
E|-------------------------------------------------|
Jesse:
e|-------------------------------------------------|
B|-------------------------------------------------|
G|-7--7--7--7--7--7--7--7--7--7--7--7--7--7--7--7--|
D|-7--7--7--7--7--7--7--7--7--7--7--7--7--7--7--7--|
A|-5--5--5--5--5--5--5--5--5--5--5--5--5--5--5--5--|
E|-------------------------------------------------|
Garrett:
G|-------------------------------------------------|
D|-------------------------------------------------|
A|-5--5--5--5--5--5--5--5--5--5--5--5--5--5--5--5--|
E|-------------------------------------------------|
"Wasting words on lower-cases and capitals"

repeat
(1:12)
Vinnie:
e|-------------------------------------------------|
B|-------------15----------------------15----------|
G|-11-12-11-12----12-11-12-11-12-11-12----12-11-12-|
D|-------------------------------------------------|
A|-------------------------------------------------|
E|-------------------------------------------------|
Jesse:
e|-------------------------------------------------|
B|-------------------------------------------------|
G|-------------------------------------------------|
D|-5--5--5--5--5--5--5--5--5--5--5--5--5--5--5--5--|
A|-5--5--5--5--5--5--5--5--5--5--5--5--5--5--5--5--|
E|-3--3--3--3--3--3--3--3--3--3--3--3--3--3--3--3--|
Garrett:
G|-------------------------------------------------|
D|-------------------------------------------------|
A|-------------------------------------------------|
E|-3--3--3--3--3--3--3--3--3--3--3--3--3--3--3--3--|
"So keep the blood in your head (and keep your feet on the ground)"

Vinnie:
e|-------------14----------------------14----------|
B|-12-13-12-13----13-12-13-12-13-12-13----13-12-13-|
G|-------------------------------------------------|
D|-------------------------------------------------|
A|-------------------------------------------------|
E|-------------------------------------------------|
Jesse:
e|-------------------------------------------------|
B|-------------------------------------------------|
G|-------------------------------------------------|
D|-2--2--2--2--2--2--2--2--2--2--2--2--2--2--2--2--|
A|-2--2--2--2--2--2--2--2--2--2--2--2--2--2--2--2--|
E|-0--0--0--0--0--0--0--0--0--0--0--0--0--0--0--0--|
Garrett:
G|-------------------------------------------------|
D|-------------------------------------------------|
A|-------------------------------------------------|
E|-0--0--0--0--0--0--0--0--0--0--0--0--0--0--0--0--|
"If today's the day it gets tired (today's the day we drop out)"

Vinnie:
e|-------------------------------------------------|
B|-------------15----------------------15----------|
G|-11-12-11-12----12-11-12-11-12-11-12----12-11-12-|
D|-------------------------------------------------|
A|-------------------------------------------------|
E|-------------------------------------------------|
Jesse:
e|-------------------------------------------------|
B|-------------------------------------------------|
G|-5--5--5--5--5--5--5--5--5--5--5--5--5--5--5--5--|
D|-5--5--5--5--5--5--5--5--5--5--5--5--5--5--5--5--|
A|-3--3--3--3--3--3--3--3--3--3--3--3--3--3--3--3--|
E|-------------------------------------------------|
Garrett:
G|-------------------------------------------------|
D|-------------------------------------------------|
A|-3--3--3--3--3--3--3--3--3--3--3--3--3--3--3--3--|
E|-------------------------------------------------|
"Gave up my body and bed (all for an empty hotel)"

Vinnie:
e|-------------14----------------------14----------|
B|-12-13-12-13----13-12-13-12-13-12-13----13-12-13-|
G|-------------------------------------------------|
D|-------------------------------------------------|
A|-------------------------------------------------|
E|-------------------------------------------------|
Jesse:
e|-------------------------------------------------|
B|-------------------------------------------------|
G|-7--7--7--7--7--7--7--7--7--7--7--7--7--7--7--7--|
D|-7--7--7--7--7--7--7--7--7--7--7--7--7--7--7--7--|
A|-5--5--5--5--5--5--5--5--5--5--5--5--5--5--5--5--|
E|-------------------------------------------------|
Garrett:
G|-------------------------------------------------|
D|-------------------------------------------------|
A|-5--5--5--5--5--5--5--5--5--5--5--5--5--5--5--5--|
E|-------------------------------------------------|
"Wasting words on lower-cases and capitals"


(1:23)
Jesse:
e|----------------|
B|----------------|
G|----------------|
D|----------------|
A|-5--5-----------|
E|-3--3--------10~|
Garrett:
G|----------------|
D|----------------|
A|----------------|
E|-3--3--------10~|



Verse 2
(1:25)
Jesse:
e|-------------------------------------------------|
B|-------------------------------------------------|
G|-------------------------------------------------|
D|-------------------------------------------------|
A|-5--5--5--5--5--5--5--5--5--5--5--5--5--5--5--5--|
E|-3--3--3--3--3--3--3--3--3--3--3--3--3--3--3--3--|
Garrett:
G|-------------------------------------------------|
D|-------------------------------------------------|
A|-------------------------------------------------|
E|-3--3--3--3--3--3--3--3--3--3--3--3--3--3--3--3--|
"I contemplate the day we wed..."

(1:28)
Jesse:
e|-------------------------------------------------|
B|-------------------------------------------------|
G|-------------------------------------------------|
D|-5--5--5--5--5--5--5--5--5--5--5--5--5--5--5--5--|
A|-3--3--3--3--3--3--3--3--3--3--3--3--3--3--3--3--|
E|-------------------------------------------------|
Garrett:
G|-------------------------------------------------|
D|-------------------------------------------------|
A|-3--3--3--3--3--3--3--3--3--3--3--3--3--3--3--3--|
E|-------------------------------------------------|
"your friends are boring me to death."


(1:31)
Jesse:
e|-------------------------------------------------|
B|-------------------------------------------------|
G|-------------------------------------------------|
D|-------------------------------------------------|
A|-2--2--2--2--2--2--2--2--2--2--2--2--2--2--2--2--|
E|-0--0--0--0--0--0--0--0--0--0--0--0--0--0--0--0--|
Garrett:
G|-------------------------------------------------|
D|-------------------------------------------------|
A|-------------------------------------------------|
E|-0--0--0--0--0--0--0--0--0--0--0--0--0--0--0--0--|
"Your veil is ruined in the rain."


(1:34)
Jesse:
e|-------------------------------------------------|
B|-------------------------------------------------|
G|-------------------------------------------------|
D|-5--5--5--5--5--5--5--5--5--5--5--5--5--5--5--5--|
A|-3--3--3--3--3--3--3--3--3--3--3--3--3--3--3--3--|
E|-------------------------------------------------|
Garrett:
G|-------------------------------------------------|
D|-------------------------------------------------|
A|-3--3--3--3--3--3--3--3--3--3--3--3--3--3--3--3--|
E|-------------------------------------------------|


(1:37)
Jesse:
e|-------------------------------------------------|
B|-------------------------------------------------|
G|-------------------------------------------------|
D|-------------------------------------------------|
A|-5--5--5--5--5--5--5--5--5--5--5--5--5--5--5--5--|
E|-3--3--3--3--3--3--3--3--3--3--3--3--3--3--3--3--|
Garrett:
G|-------------------------------------------------|
D|-------------------------------------------------|
A|-------------------------------------------------|
E|-3--3--3--3--3--3--3--3--3--3--3--3--3--3--3--3--|
Vinnie:(distorted)
e|-------------------------------------------------|
B|-------------------------------------------------|
G|-------------------------------------------------|
D|-------------------------5-----4-----5-----------|
A|----------------------------5-----5-----5--------|
E|-------------------------------------------------|
"By then it's you I can do without..."

(1:40)
Jesse:
e|-------------------------------------------------|
B|-------------------------------------------------|
G|-------------------------------------------------|
D|-5--5--5--5--5--5--5--5--5--5--5--5--5--5--5--5--|
A|-3--3--3--3--3--3--3--3--3--3--3--3--3--3--3--3--|
E|-------------------------------------------------|
Garrett:
G|-------------------------------------------------|
D|-------------------------------------------------|
A|-3--3--3--3--3--3--3--3--3--3--3--3--3--3--3--3--|
E|-------------------------------------------------|
Vinnie:(distorted)
e|-------------------------------------------------|
B|-------------------------------------------------|
G|-------------------------------------------------|
D|-------------------------5-----4-----5-----------|
A|----------------------------5-----5-----5--------|
E|-------------------------------------------------|
"There's nothing new to talk about..."


(1:43)
Jesse:
e|-------------------------------------------------|
B|-------------------------------------------------|
G|-------------------------------------------------|
D|-------------------------------------------------|
A|-2--2--2--2--2--2--2--2--2--2--2--2--2--2--2--2--|
E|-0--0--0--0--0--0--0--0--0--0--0--0--0--0--0--0--|
Garrett:
G|-------------------------------------------------|
D|-------------------------------------------------|
A|-------------------------------------------------|
E|-0--0--0--0--0--0--0--0--0--0--0--0--0--0--0--0--|
Vinnie:(distorted)
e|-------------------------------------------------|
B|-------------------------------------------------|
G|-------------------------------------------------|
D|-------------------------5-----4-----5-----------|
A|----------------------------5-----5-----5--------|
E|-------------------------------------------------|
"And though our kids are blessed, the parents..."


(1:46)
Jesse:
e|-------------------------------------------------|
B|-------------------------------------------------|
G|-------------------------------------------------|
D|-5--5--5--5--5--5--5--5--5--5--5--5--5--5--5--5--|
A|-3--3--3--3--3--3--3--3--3--3--3--3--3--3--3--3--|
E|-------------------------------------------------|
Garrett:
G|-------------------------------------------------|
D|-------------------------------------------------|
A|-3--3--3--3--3--3--3--3--3--3--3--3--3--3--3--3--|
E|-------------------------------------------------|
Vinnie:(distorted)
e|-------------------------------------------------|
B|-------------------------------------------------|
G|-------------------------------------------------|
D|-------------------------5-----4-----5-----------|
A|----------------------------5-----5-----5--------|
E|-------------------------------------------------|
"...let them shoulder all the blame."




Chorus
(1:49)
Vinnie:
e|-------------------------------------------------|
B|-------------15----------------------15----------|
G|-11-12-11-12----12-11-12-11-12-11-12----12-11-12-|
D|-------------------------------------------------|
A|-------------------------------------------------|
E|-------------------------------------------------|
Jesse:
e|-------------------------------------------------|
B|-------------------------------------------------|
G|-------------------------------------------------|
D|-5--5--5--5--5--5--5--5--5--5--5--5--5--5--5--5--|
A|-5--5--5--5--5--5--5--5--5--5--5--5--5--5--5--5--|
E|-3--3--3--3--3--3--3--3--3--3--3--3--3--3--3--3--|
Garrett:
G|-------------------------------------------------|
D|-------------------------------------------------|
A|-------------------------------------------------|
E|-3--3--3--3--3--3--3--3--3--3--3--3--3--3--3--3--|
"So keep the blood in your head (and keep your feet on the ground)"

Vinnie:
e|-------------14----------------------14----------|
B|-12-13-12-13----13-12-13-12-13-12-13----13-12-13-|
G|-------------------------------------------------|
D|-------------------------------------------------|
A|-------------------------------------------------|
E|-------------------------------------------------|
Jesse:
e|-------------------------------------------------|
B|-------------------------------------------------|
G|-------------------------------------------------|
D|-2--2--2--2--2--2--2--2--2--2--2--2--2--2--2--2--|
A|-2--2--2--2--2--2--2--2--2--2--2--2--2--2--2--2--|
E|-0--0--0--0--0--0--0--0--0--0--0--0--0--0--0--0--|
Garrett:
G|-------------------------------------------------|
D|-------------------------------------------------|
A|-------------------------------------------------|
E|-0--0--0--0--0--0--0--0--0--0--0--0--0--0--0--0--|
"If today's the day it gets tired (today's the day we drop out)"

Vinnie:
e|-------------------------------------------------|
B|-------------15----------------------15----------|
G|-11-12-11-12----12-11-12-11-12-11-12----12-11-12-|
D|-------------------------------------------------|
A|-------------------------------------------------|
E|-------------------------------------------------|
Jesse:
e|-------------------------------------------------|
B|-------------------------------------------------|
G|-5--5--5--5--5--5--5--5--5--5--5--5--5--5--5--5--|
D|-5--5--5--5--5--5--5--5--5--5--5--5--5--5--5--5--|
A|-3--3--3--3--3--3--3--3--3--3--3--3--3--3--3--3--|
E|-------------------------------------------------|
Garrett:
G|-------------------------------------------------|
D|-------------------------------------------------|
A|-3--3--3--3--3--3--3--3--3--3--3--3--3--3--3--3--|
E|-------------------------------------------------|
"Gave up my body and bed (all for an empty hotel)"

Vinnie:
e|-------------14----------------------14----------|
B|-12-13-12-13----13-12-13-12-13-12-13----13-12-13-|
G|-------------------------------------------------|
D|-------------------------------------------------|
A|-------------------------------------------------|
E|-------------------------------------------------|
Jesse:
e|-------------------------------------------------|
B|-------------------------------------------------|
G|-7--7--7--7--7--7--7--7--7--7--7--7--7--7--7--7--|
D|-7--7--7--7--7--7--7--7--7--7--7--7--7--7--7--7--|
A|-5--5--5--5--5--5--5--5--5--5--5--5--5--5--5--5--|
E|-------------------------------------------------|
Garrett:
G|-------------------------------------------------|
D|-------------------------------------------------|
A|-5--5--5--5--5--5--5--5--5--5--5--5--5--5--5--5--|
E|-------------------------------------------------|
"Wasting words on lower-cases and capitals"

repeat
(2:00)
Vinnie:
e|-------------------------------------------------|
B|-------------15----------------------15----------|
G|-11-12-11-12----12-11-12-11-12-11-12----12-11-12-|
D|-------------------------------------------------|
A|-------------------------------------------------|
E|-------------------------------------------------|
Jesse:
e|-------------------------------------------------|
B|-------------------------------------------------|
G|-------------------------------------------------|
D|-5--5--5--5--5--5--5--5--5--5--5--5--5--5--5--5--|
A|-5--5--5--5--5--5--5--5--5--5--5--5--5--5--5--5--|
E|-3--3--3--3--3--3--3--3--3--3--3--3--3--3--3--3--|
Garrett:
G|-------------------------------------------------|
D|-------------------------------------------------|
A|-------------------------------------------------|
E|-3--3--3--3--3--3--3--3--3--3--3--3--3--3--3--3--|
"So keep the blood in your head (and keep your feet on the ground)"

Vinnie:
e|-------------14----------------------14----------|
B|-12-13-12-13----13-12-13-12-13-12-13----13-12-13-|
G|-------------------------------------------------|
D|-------------------------------------------------|
A|-------------------------------------------------|
E|-------------------------------------------------|
Jesse:
e|-------------------------------------------------|
B|-------------------------------------------------|
G|-------------------------------------------------|
D|-2--2--2--2--2--2--2--2--2--2--2--2--2--2--2--2--|
A|-2--2--2--2--2--2--2--2--2--2--2--2--2--2--2--2--|
E|-0--0--0--0--0--0--0--0--0--0--0--0--0--0--0--0--|
Garrett:
G|-------------------------------------------------|
D|-------------------------------------------------|
A|-------------------------------------------------|
E|-0--0--0--0--0--0--0--0--0--0--0--0--0--0--0--0--|
"If today's the day it gets tired (today's the day we drop out)"

Vinnie:
e|-------------------------------------------------|
B|-------------15----------------------15----------|
G|-11-12-11-12----12-11-12-11-12-11-12----12-11-12-|
D|-------------------------------------------------|
A|-------------------------------------------------|
E|-------------------------------------------------|
Jesse:
e|-------------------------------------------------|
B|-------------------------------------------------|
G|-5--5--5--5--5--5--5--5--5--5--5--5--5--5--5--5--|
D|-5--5--5--5--5--5--5--5--5--5--5--5--5--5--5--5--|
A|-3--3--3--3--3--3--3--3--3--3--3--3--3--3--3--3--|
E|-------------------------------------------------|
Garrett:
G|-------------------------------------------------|
D|-------------------------------------------------|
A|-3--3--3--3--3--3--3--3--3--3--3--3--3--3--3--3--|
E|-------------------------------------------------|
"Gave up my body and bed (all for an empty hotel)"

Vinnie:
e|-------------14----------------------14----------|
B|-12-13-12-13----13-12-13-12-13-12-13----13-12-13-|
G|-------------------------------------------------|
D|-------------------------------------------------|
A|-------------------------------------------------|
E|-------------------------------------------------|
Jesse:
e|-------------------------------------------------|
B|-------------------------------------------------|
G|-7--7--7--7--7--7--7--7--7--7--7--7--7--7--7--7--|
D|-7--7--7--7--7--7--7--7--7--7--7--7--7--7--7--7--|
A|-5--5--5--5--5--5--5--5--5--5--5--5--5--5--5--5--|
E|-------------------------------------------------|
Garrett:
G|-------------------------------------------------|
D|-------------------------------------------------|
A|-5--5--5--5--5--5--5--5--5--5--5--5--5--5--5--5--|
E|-------------------------------------------------|
"Wasting words on lower-cases and capitals"




Bridge
(2:12)
Vinnie:
e|-----3p2--2~---|-----3p2--0~---|-----3p2--2~---|-----3p2--2~---3h5-|
B|--------3----3-|--------3----3-|--------3----3-|--------3----3-----|
G|---------------|---------------|---------------|-------------------|
D|---------------|---------------|---------------|-0~~---------------|
A|---------------|---------------|-3~~-----------|-------------------|
E|-3~~-----------|-0~~-----------|---------------|-------------------|
Jesse:
e|---------------|---------------|---------------|-------------------|
B|---------------|---------------|---------------|-------------------|
G|---------------|---------------|---------------|-------------------|
D|---------------|---------------|-5~~-----------|-7~~---------------|
A|-5~~-----------|-2~~-----------|-3~~-----------|-5~~---------------|
E|-3~~-----------|-0~~-----------|---------------|-------------------|
Garrett:
G|---------------|---------------|---------------|-------------------|
D|---------------|---------------|---------------|-------------------|
A|---------------|---------------|-3~~-----------|-5~~---------------|
E|-3~~-----------|-0~~-----------|---------------|-------------------|


repeat
(2:24)
Vinnie:
e|-----3p2--2~---|-----3p2--0~---|-----3p2--2~---|-----3p2--2~---3h5-|
B|--------3----3-|--------3----3-|--------3----3-|--------3----3-----|
G|---------------|---------------|---------------|-------------------|
D|---------------|---------------|---------------|-0~~---------------|
A|---------------|---------------|-3~~-----------|-------------------|
E|-3~~-----------|-0~~-----------|---------------|-------------------|
Jesse:
e|---------------|---------------|---------------|-------------------|
B|---------------|---------------|---------------|-------------------|
G|---------------|---------------|---------------|-------------------|
D|---------------|---------------|-5~~-----------|-7~~---------------|
A|-5~~-----------|-2~~-----------|-3~~-----------|-5~~---------------|
E|-3~~-----------|-0~~-----------|---------------|-------------------|
Garrett:
G|---------------|---------------|---------------|-------------------|
D|---------------|---------------|---------------|-------------------|
A|---------------|---------------|-3~~-----------|-5~~---------------|
E|-3~~-----------|-0~~-----------|---------------|-------------------|


(2:35)
Vinnie:
e|---------3p2------2~-------------|
B|--------------3------3-----------|
G|---------------------------------|
D|---------------------------------|
A|---------------------------------|
E|----3~~--------------------------|
Jesse:
e|---------------------------------|
B|---------------------------------|
G|---------------------------------|
D|---------------------------------|
A|-5-5-5-5-5-5-5-5-5-5-5-5-5-5-5-5-|
E|-3-3-3-3-3-3-3-3-3-3-3-3-3-3-3-3-|
   . . . . . . . . . . . . . . . . 
Garrett:
G|---------------------------------|
D|---------------------------------|
A|---------------------------------|
E|-3-3-3-3-3-3-3-3-3-3-3-3-3-3-3-3-|
"I....."


Vinnie:
e|---------3p2------0~-------------|
B|--------------3------3-----------|
G|---------------------------------|
D|---------------------------------|
A|---------------------------------|
E|----3~~--------------------------|
Jesse:
e|---------------------------------|
B|---------------------------------|
G|---------------------------------|
D|---------------------------------|
A|-2-2-2-2-2-2-2-2-2-2-2-2-2-2-2-2-|
E|-0-0-0-0-0-0-0-0-0-0-0-0-0-0-0-0-|
   . . . . . . . . . . . . . . . . 
Garrett:
G|---------------------------------|
D|---------------------------------|
A|---------------------------------|
E|-0-0-0-0-0-0-0-0-0-0-0-0-0-0-0-0-|
"...lieeee for..."


Vinnie:
e|---------3p2------2~-------------|
B|--------------3------3-----------|
G|---------------------------------|
D|---------------------------------|
A|---------------------------------|
E|----3~~--------------------------|
Jesse:
e|---------------------------------|
B|---------------------------------|
G|---------------------------------|
D|-5-5-5-5-5-5-5-5-5-5-5-5-5-5-5-5-|
A|-3-3-3-3-3-3-3-3-3-3-3-3-3-3-3-3-|
E|---------------------------------|
   . . . . . . . . . . . . . . . . 
Garrett:
G|---------------------------------|
D|---------------------------------|
A|-3-3-3-3-3-3-3-3-3-3-3-3-3-3-3-3-|
E|---------------------------------|
"...only you..."


Vinnie:
e|---------3p2------2~----3h5------|
B|--------------3------3-----------|
G|---------------------------------|
D|---------------------------------|
A|---------------------------------|
E|----3~~--------------------------|
Jesse:
e|---------------------------------|
B|---------------------------------|
G|---------------------------------|
D|-7-7-7-7-7-7-7-7-7-7-7-7-7-7-7-7-|
A|-5-5-5-5-5-5-5-5-5-5-5-5-5-5-5-5-|
E|---------------------------------|
   . . . . . . . . . . . . . . . . 
Garrett:
G|---------------------------------|
D|---------------------------------|
A|-5-5-5-5-5-5-5-5-5-5-5-5-5-5-5-5-|
E|---------------------------------|
"...(you)"



(2:47)
Vinnie:
e|---------3p2------2~-------------|
B|--------------3------3-----------|
G|---------------------------------|
D|---------------------------------|
A|---------------------------------|
E|----3~~--------------------------|
Jesse:
e|---------------------------------|
B|---------------------------------|
G|---------------------------------|
D|---------------------------------|
A|-5-5-5-5-5-5-5-5-5-5-5-5-5-5-5-5-|
E|-3-3-3-3-3-3-3-3-3-3-3-3-3-3-3-3-|
   . . . . . . . . . . . . . . . . 
Garrett:
G|---------------------------------|
D|---------------------------------|
A|---------------------------------|
E|-3-3-3-3-3-3-3-3-3-3-3-3-3-3-3-3-|
"and I..."


Vinnie:
e|---------3p2------0~-------------|
B|--------------3------3-----------|
G|---------------------------------|
D|---------------------------------|
A|---------------------------------|
E|----3~~--------------------------|
Jesse:
e|---------------------------------|
B|---------------------------------|
G|---------------------------------|
D|---------------------------------|
A|-2-2-2-2-2-2-2-2-2-2-2-2-2-2-2-2-|
E|-0-0-0-0-0-0-0-0-0-0-0-0-0-0-0-0-|
   . . . . . . . . . . . . . . . . 
Garrett:
G|---------------------------------|
D|---------------------------------|
A|---------------------------------|
E|-0-0-0-0-0-0-0-0-0-0-0-0-0-0-0-0-|
"lie well..."

Vinnie:
e|---------3p2------2~-------------|
B|--------------3------3-----------|
G|---------------------------------|
D|---------------------------------|
A|---------------------------------|
E|----3~~--------------------------|
Jesse:
e|---------------------------------|
B|---------------------------------|
G|---------------------------------|
D|-5-5-5-5-5-5-5-5-5-5-5-5-5-5-5-5-|
A|-3-3-3-3-3-3-3-3-3-3-3-3-3-3-3-3-|
E|---------------------------------|
   . . . . . . . . . . . . . . . . 
Garrett:
G|---------------------------------|
D|---------------------------------|
A|-3-3-3-3-3-3-3-3-3-3-3-3-3-3-3-3-|
E|---------------------------------|
"Hallelu..."


Vinnie:
e|---------3p2------2~----3h5------|
B|--------------3------3-----------|
G|---------------------------------|
D|---------------------------------|
A|---------------------------------|
E|----3~~--------------------------|
Jesse:
e|---------------------------------|
B|---------------------------------|
G|---------------------------------|
D|-7-7-7-7-7-7-7-7-7-7-7-7-7-7-7-7-|
A|-5-5-5-5-5-5-5-5-5-5-5-5-5-5-5-5-|
E|---------------------------------|
   . . . . . . . . . . . . . . . . 
Garrett:
G|---------------------------------|
D|---------------------------------|
A|-5-5-5-5-5-5-5-5-5-5-5-5-5-5-5-5-|
E|---------------------------------|
"..(luuuu)..."


(2:59)
Vinnie:
e|-------------------------------------------------|
B|-------------15----------------------15----------|
G|-11-12-11-12----12-11-12-11-12-11-12----12-11-12-|
D|-------------------------------------------------|
A|-------------------------------------------------|
E|-------------------------------------------------|
Jesse:
e|-------------------------------------------------|
B|-------------------------------------------------|
G|-------------------------------------------------|
D|-5--5--5--5--5--5--5--5--5--5--5--5--5--5--5--5--|
A|-5--5--5--5--5--5--5--5--5--5--5--5--5--5--5--5--|
E|-3--3--3--3--3--3--3--3--3--3--3--3--3--3--3--3--|
Garrett:
G|-------------------------------------------------|
D|-------------------------------------------------|
A|-------------------------------------------------|
E|-3--3--3--3--3--3--3--3--3--3--3--3--3--3--3--3--|
"IIIIIII...."

Vinnie:
e|-------------14----------------------14----------|
B|-12-13-12-13----13-12-13-12-13-12-13----13-12-13-|
G|-------------------------------------------------|
D|-------------------------------------------------|
A|-------------------------------------------------|
E|-------------------------------------------------|
Jesse:
e|-------------------------------------------------|
B|-------------------------------------------------|
G|-------------------------------------------------|
D|-2--2--2--2--2--2--2--2--2--2--2--2--2--2--2--2--|
A|-2--2--2--2--2--2--2--2--2--2--2--2--2--2--2--2--|
E|-0--0--0--0--0--0--0--0--0--0--0--0--0--0--0--0--|
Garrett:
G|-------------------------------------------------|
D|-------------------------------------------------|
A|-------------------------------------------------|
E|-0--0--0--0--0--0--0--0--0--0--0--0--0--0--0--0--|
"lieeeeee for..."

Vinnie:
e|-------------------------------------------------|
B|-------------15----------------------15----------|
G|-11-12-11-12----12-11-12-11-12-11-12----12-11-12-|
D|-------------------------------------------------|
A|-------------------------------------------------|
E|-------------------------------------------------|
Jesse:
e|-------------------------------------------------|
B|-------------------------------------------------|
G|-5--5--5--5--5--5--5--5--5--5--5--5--5--5--5--5--|
D|-5--5--5--5--5--5--5--5--5--5--5--5--5--5--5--5--|
A|-3--3--3--3--3--3--3--3--3--3--3--3--3--3--3--3--|
E|-------------------------------------------------|
Garrett:
G|-------------------------------------------------|
D|-------------------------------------------------|
A|-3--3--3--3--3--3--3--3--3--3--3--3--3--3--3--3--|
E|-------------------------------------------------|
"..only you....."

Vinnie:
e|-------------14----------------------14----------|
B|-12-13-12-13----13-12-13-12-13-12-13----13-12-13-|
G|-------------------------------------------------|
D|-------------------------------------------------|
A|-------------------------------------------------|
E|-------------------------------------------------|
Jesse:
e|-------------------------------------------------|
B|-------------------------------------------------|
G|-7--7--7--7--7--7--7--7--7--7--7--7--7--7--7--7--|
D|-7--7--7--7--7--7--7--7--7--7--7--7--7--7--7--7--|
A|-5--5--5--5--5--5--5--5--5--5--5--5--5--5--5--5--|
E|-------------------------------------------------|
Garrett:
G|-------------------------------------------------|
D|-------------------------------------------------|
A|-5--5--5--5--5--5--5--5--5--5--5--5--5--5--5--5--|
E|-------------------------------------------------|
"...(youuu)..."


Vinnie:
e|-------------------------------------------------|
B|-------------------------------------------------|
G|-11-12-11-12-------------------------------------|
D|-------------------------------------------------|
A|-------------------------------------------------|
E|-------------------------------------------------|
Jesse:
e|-------------------------------------------------|
B|-------------------------------------------------|
G|-------------------------------------------------|
D|-5--5--5--5--------------------------------------|
A|-5--5--5--5--------------------------------------|
E|-3--3--3--3--------------------------------------|
Garrett:
G|-------------------------------------------------|
D|-------------------------------------------------|
A|-------------------------------------------------|
E|-3--3--3--3--------------------------------------|
"...............and IIIIIIIII..."

Vinnie:
e|-------------14----------------------14----------|
B|-12-13-12-13----13-12-13-12-13-12-13----13-12-13-|
G|-------------------------------------------------|
D|-------------------------------------------------|
A|-------------------------------------------------|
E|-------------------------------------------------|
Jesse:
e|-------------------------------------------------|
B|-------------------------------------------------|
G|-------------------------------------------------|
D|-2--2--2--2--2--2--2--2--2--2--2--2--2--2--2--2--|
A|-2--2--2--2--2--2--2--2--2--2--2--2--2--2--2--2--|
E|-0--0--0--0--0--0--0--0--0--0--0--0--0--0--0--0--|
Garrett:
G|-------------------------------------------------|
D|-------------------------------------------------|
A|-------------------------------------------------|
E|-0--0--0--0--0--0--0--0--0--0--0--0--0--0--0--0--|
"lieeeeee well..."

Vinnie:
e|-------------------------------------------------|
B|-------------15----------------------15----------|
G|-11-12-11-12----12-11-12-11-12-11-12----12-11-12-|
D|-------------------------------------------------|
A|-------------------------------------------------|
E|-------------------------------------------------|
Jesse:
e|-------------------------------------------------|
B|-------------------------------------------------|
G|-5--5--5--5--5--5--5--5--5--5--5--5--5--5--5--5--|
D|-5--5--5--5--5--5--5--5--5--5--5--5--5--5--5--5--|
A|-3--3--3--3--3--3--3--3--3--3--3--3--3--3--3--3--|
E|-------------------------------------------------|
Garrett:
G|-------------------------------------------------|
D|-------------------------------------------------|
A|-3--3--3--3--3--3--3--3--3--3--3--3--3--3--3--3--|
E|-------------------------------------------------|
"Hallelu..."

Vinnie:
e|-------------14----------------------14----------|
B|-12-13-12-13----13-12-13-12-13-12-13----13-12-13-|
G|-------------------------------------------------|
D|-------------------------------------------------|
A|-------------------------------------------------|
E|-------------------------------------------------|
Jesse:
e|-------------------------------------------------|
B|-------------------------------------------------|
G|-7--7--7--7--7--7--7--7--7--7--7--7--7--7--7--7--|
D|-7--7--7--7--7--7--7--7--7--7--7--7--7--7--7--7--|
A|-5--5--5--5--5--5--5--5--5--5--5--5--5--5--5--5--|
E|-------------------------------------------------|
Garrett:
G|-------------------------------------------------|
D|-------------------------------------------------|
A|-5--5--5--5--5--5--5--5--5--5--5--5--5--5--5--5--|
E|-------------------------------------------------|
"..(luuuu)..."



Chorus, with words from bridge repeated in background.
(3:22)
Vinnie:
e|-------------------------------------------------|
B|-------------15----------------------15----------|
G|-11-12-11-12----12-11-12-11-12-11-12----12-11-12-|
D|-------------------------------------------------|
A|-------------------------------------------------|
E|-------------------------------------------------|
Jesse:
e|-------------------------------------------------|
B|-------------------------------------------------|
G|-------------------------------------------------|
D|-5--5--5--5--5--5--5--5--5--5--5--5--5--5--5--5--|
A|-5--5--5--5--5--5--5--5--5--5--5--5--5--5--5--5--|
E|-3--3--3--3--3--3--3--3--3--3--3--3--3--3--3--3--|
Garrett:
G|-------------------------------------------------|
D|-------------------------------------------------|
A|-------------------------------------------------|
E|-3--3--3--3--3--3--3--3--3--3--3--3--3--3--3--3--|
"So keep the blood in your head (and keep your feet on the ground)[I...]"

Vinnie:
e|-------------14----------------------14----------|
B|-12-13-12-13----13-12-13-12-13-12-13----13-12-13-|
G|-------------------------------------------------|
D|-------------------------------------------------|
A|-------------------------------------------------|
E|-------------------------------------------------|
Jesse:
e|-------------------------------------------------|
B|-------------------------------------------------|
G|-------------------------------------------------|
D|-2--2--2--2--2--2--2--2--2--2--2--2--2--2--2--2--|
A|-2--2--2--2--2--2--2--2--2--2--2--2--2--2--2--2--|
E|-0--0--0--0--0--0--0--0--0--0--0--0--0--0--0--0--|
Garrett:
G|-------------------------------------------------|
D|-------------------------------------------------|
A|-------------------------------------------------|
E|-0--0--0--0--0--0--0--0--0--0--0--0--0--0--0--0--|
"If today's the day it gets tired (today's the day we drop out)[lie for..]"

Vinnie:
e|-------------------------------------------------|
B|-------------15----------------------15----------|
G|-11-12-11-12----12-11-12-11-12-11-12----12-11-12-|
D|-------------------------------------------------|
A|-------------------------------------------------|
E|-------------------------------------------------|
Jesse:
e|-------------------------------------------------|
B|-------------------------------------------------|
G|-5--5--5--5--5--5--5--5--5--5--5--5--5--5--5--5--|
D|-5--5--5--5--5--5--5--5--5--5--5--5--5--5--5--5--|
A|-3--3--3--3--3--3--3--3--3--3--3--3--3--3--3--3--|
E|-------------------------------------------------|
Garrett:
G|-------------------------------------------------|
D|-------------------------------------------------|
A|-3--3--3--3--3--3--3--3--3--3--3--3--3--3--3--3--|
E|-------------------------------------------------|
"Gave up my body and bed (all for an empty hotel)[..only you..]"

Vinnie:
e|-------------14----------------------14----------|
B|-12-13-12-13----13-12-13-12-13-12-13----13-12-13-|
G|-------------------------------------------------|
D|-------------------------------------------------|
A|-------------------------------------------------|
E|-------------------------------------------------|
Jesse:
e|-------------------------------------------------|
B|-------------------------------------------------|
G|-7--7--7--7--7--7--7--7--7--7--7--7--7--7--7--7--|
D|-7--7--7--7--7--7--7--7--7--7--7--7--7--7--7--7--|
A|-5--5--5--5--5--5--5--5--5--5--5--5--5--5--5--5--|
E|-------------------------------------------------|
Garrett:
G|-------------------------------------------------|
D|-------------------------------------------------|
A|-5--5--5--5--5--5--5--5--5--5--5--5--5--5--5--5--|
E|-------------------------------------------------|
"Wasting words on lower-cases and capitals"

repeat
(3:35)
Vinnie:
e|-------------------------------------------------|
B|-------------15----------------------15----------|
G|-11-12-11-12----12-11-12-11-12-11-12----12-11-12-|
D|-------------------------------------------------|
A|-------------------------------------------------|
E|-------------------------------------------------|
Jesse:
e|-------------------------------------------------|
B|-------------------------------------------------|
G|-------------------------------------------------|
D|-5--5--5--5--5--5--5--5--5--5--5--5--5--5--5--5--|
A|-5--5--5--5--5--5--5--5--5--5--5--5--5--5--5--5--|
E|-3--3--3--3--3--3--3--3--3--3--3--3--3--3--3--3--|
Garrett:
G|-------------------------------------------------|
D|-------------------------------------------------|
A|-------------------------------------------------|
E|-3--3--3--3--3--3--3--3--3--3--3--3--3--3--3--3--|
"So keep the blood in your head (and keep your feet on the ground)[and i..]"

Vinnie:
e|-------------14----------------------14----------|
B|-12-13-12-13----13-12-13-12-13-12-13----13-12-13-|
G|-------------------------------------------------|
D|-------------------------------------------------|
A|-------------------------------------------------|
E|-------------------------------------------------|
Jesse:
e|-------------------------------------------------|
B|-------------------------------------------------|
G|-------------------------------------------------|
D|-2--2--2--2--2--2--2--2--2--2--2--2--2--2--2--2--|
A|-2--2--2--2--2--2--2--2--2--2--2--2--2--2--2--2--|
E|-0--0--0--0--0--0--0--0--0--0--0--0--0--0--0--0--|
Garrett:
G|-------------------------------------------------|
D|-------------------------------------------------|
A|-------------------------------------------------|
E|-0--0--0--0--0--0--0--0--0--0--0--0--0--0--0--0--|
"If today's the day it gets tired (today's the day we drop out)[lie well..]"

Vinnie:
e|-------------------------------------------------|
B|-------------15----------------------15----------|
G|-11-12-11-12----12-11-12-11-12-11-12----12-11-12-|
D|-------------------------------------------------|
A|-------------------------------------------------|
E|-------------------------------------------------|
Jesse:
e|-------------------------------------------------|
B|-------------------------------------------------|
G|-5--5--5--5--5--5--5--5--5--5--5--5--5--5--5--5--|
D|-5--5--5--5--5--5--5--5--5--5--5--5--5--5--5--5--|
A|-3--3--3--3--3--3--3--3--3--3--3--3--3--3--3--3--|
E|-------------------------------------------------|
Garrett:
G|-------------------------------------------------|
D|-------------------------------------------------|
A|-3--3--3--3--3--3--3--3--3--3--3--3--3--3--3--3--|
E|-------------------------------------------------|
"Gave up my body and bed (all for an empty hotel)[hallelu....]"

Vinnie:
e|-------------14----------------------14----------|
B|-12-13-12-13----13-12-13-12-13-12-13----13-12-13-|
G|-------------------------------------------------|
D|-------------------------------------------------|
A|-------------------------------------------------|
E|-------------------------------------------------|
Jesse:
e|-------------------------------------------------|
B|-------------------------------------------------|
G|-7--7--7--7--7--7--7--7--7--7--7--7--7--7--7--7--|
D|-7--7--7--7--7--7--7--7--7--7--7--7--7--7--7--7--|
A|-5--5--5--5--5--5--5--5--5--5--5--5--5--5--5--5--|
E|-------------------------------------------------|
Garrett:
G|-------------------------------------------------|
D|-------------------------------------------------|
A|-5--5--5--5--5--5--5--5--5--5--5--5--5--5--5--5--|
E|-------------------------------------------------|
"Wasting words on lower-cases and capitals"


(3:46)
Vinnie:
e|------------------------|
B|------------------------|
G|-11~~~vibrato~~~~~~~~~~~|
D|------------------------|
A|------------------------|
E|------------------------|
Jesse:
e|------------------------|
B|------------------------|
G|------------------------|
D|-5~~--------------------|
A|-5~~--------------------|
E|-3~~--------------------|
Garrett:
G|------------------------|
D|------------------------|
A|------------------------|
E|-3~~--------------------|




   h: hammer-on
   p: pull-off
   .: palm mute
   ~: let ring
Tap to rate this tab
 
# A B C D E F G H I J K L M N O P Q R S T U V W X Y Z