Song name
# A B C D E F G H I J K L M N O P Q R S T U V W X Y Z

Brand New - Okay I Believe You But My Tommy Gun Dont tab

Help us improve GuitareTab! Take a short survey!
-------------------------------------------------------------------------------
	 Okay I Believe You But My Tommy Gun Don't- Brand New
-------------------------------------------------------------------------------
Tabbed by:FghtFfYrDmns (revised version of Sarasman)
Email: The other tab for this song is awesome just not exactly how I play it so I 
I'd go ahead and add in some stuff.
Any questions, comments, whatever, Blnkgttrst@gmail.com

Tuning:Tuned Down Half A Step
Guitar 1- Intro/Verse
e|---------------------------------------------------------------------------|
B|---------------------------------------------------------------------------|
G|---------------------------------------------------------------------------|
D|-55555555-9-9-9-9------X10-------------------------------------------------|
A|-77777777101010107777------------------------------------------------------|
E|-----------------8888------------------------------------------------------|
   ********************
Guitar 1 (play with guitar 2)
e|---------------------------------------------------------------------------|
B|---------------------------------------------------------------------------|
G|---------------------------------------------------------------------------|
D|-4444444444444444-9-9-9-9-9-9-9-9999999994444444444444444-9-9-9-9-9-9-9-9--|
A|-555555552222222210101010101010107777777755555555222222221010101010101010--|
E|---------------------------------------------------------------------------|
   ************************************************************************
e|---------------------------------------------------------------------------|
B|---------------------------------------------------------------------------|
G|---------------------------------------------------------------------------|
D|-999955554444444444444444--------------------------------------------------|
A|-777777775555555522222222--------------------------------------------------|
E|---------------------------------------------------------------------------|
   ************************
Guitar 2 Verse-
e|---------------------------------------------------------------------------|
B|---------------------------------------------------------------------------|
G|--------------------0~~~~0~~~0~~~0~-------------------0~~~~0~~~0~~~0-------|
D|--404-404-404-404--9~9~~9~9~9~9~9~9-404~404~404~404--9~9~~9~9~9~9~9~9------|
A|-5~~~5~~~2~~~2~~~10~~~10~~~7~~~7~~~5~~~5~~~2~~~2~~~10~~~10~~~7~~~7~~~------|
E|---------------------------------------------------------------------------|

e|---------------------------------------------------------------------------|
B|---------------------------------------------------------------------------|
G|---------------------------------------------------------------------------|
D|--4~4~4~4~7~7~7~7----------------------------------------------------------|
A|-5~5~5~5~5~5~5~5~----------------------------------------------------------|
E|---------------------------------------------------------------------------|

Guitar 1 Second Verse
Come in after guitar two plays verse riff twice.
e|---------------------------------------------------------------------------|
B|---------------------------------------------------------------------------|
G|---------------------------------------------------------------------------|
D|-55555555-9-9-9-9------X8--------------------------------------------------|
A|-77777777101010107777------------------------------------------------------|
E|-----------------8888------------------------------------------------------|
Guitar 2
e|---------------------------------------------------------------------------|
B|---------------------------------------------------------------------------|
G|---------------------------------------------------------------------------|
D|--7-7-7-7--9----------X10--------------------------------------------------|
A|-9-9-9-9-10-10--7----------------------------------------------------------|
E|--------------78-87--------------------------------------------------------|

Guitar 1 (play with guitar 2)
e|---------------------------------------------------------------------------|
B|---------------------------------------------------------------------------|
G|---------------------------------------------------------------------------|
D|-4444444444444444-9-9-9-9-9-9-9-9999999994444444444444444-9-9-9-9-9-9-9-9--|
A|-555555552222222210101010101010107777777755555555222222221010101010101010--|
E|---------------------------------------------------------------------------|
   ************************************************************************
e|---------------------------------------------------------------------------|
B|---------------------------------------------------------------------------|
G|---------------------------------------------------------------------------|
D|-999955554444444477777777--12/5--------------------------------------------|
A|-777777775555555555555555--12/5--------------------------------------------|
E|---------------------------10/3--------------------------------------------|
   ************************
Guitar 2 Verse-
e|---------------------------------------------------------------------------|
B|---------------------------------------------------------------------------|
G|--------------------0~~~~0~~~0~~~0~-------------------0~~~~0~~~0~~~0-------|
D|--404-404-404-404--9~9~~9~9~9~9~9~9-404~404~404~404--9~9~~9~9~9~9~9~9------|
A|-5~~~5~~~2~~~2~~~10~~~10~~~7~~~7~~~5~~~5~~~2~~~2~~~10~~~10~~~7~~~7~~~------|
E|---------------------------------------------------------------------------|

e|---------------------------------------------------------------------------|
B|---------------------------------------------------------------------------|
G|---------------------------------------------------------------------------|
D|--4~4~4~4~7~7~7~7----------------------------------------------------------|
A|-5~5~5~5~5~5~5~5~----------------------------------------------------------|
E|---------------------------------------------------------------------------|

Chorus
Guitar 1
e|---------------------------------------------------------------------------|
B|---------------------------------------------------------------------------|
G|---------5-5-55-5--------5-5-55-5------------------------------------------|
D|-5-5-55-55-5-55-52-2-22-25-5-55-5-X2---------------------------------------|
A|-5-5-55-53-3-33-32-2-22-23-3-33-3------------------------------------------|
E|-3-3-33-3--------0-0-00-0--------------------------------------------------|
Guitar 2
e|---------------------------------------------------------------------------|
B|---------------------------------------------------------------------------|
G|---------55555555--------55555555------------------------------------------|
D|-55555555555555552222222255555555-X2---------------------------------------|
A|-55555555333333332222222233333333------------------------------------------|
E|-33333333--------00000000--------------------------------------------------|

Verse 3
Guitar 2
e|---------------------------------------------------------------------------|
B|---------------------------------------------------------------------------|
G|---------------------------------------------------------------------------|
D|-55-5555-55-9-9--9-9--------X10--------------------------------------------|
A|-77-7777-771010-1010-7777--------------------------------------------------|
E|---------------------8888-0------------------------------------------------|
Guitar 1 (after guitar 2 plays above riff twice)
e|---------------------------------------------------------------------------|
B|---------------------------------------------------------------------------|
G|---------------------------------------------------------------------------|
D|--7-7-7-7--9----------X8---------------------------------------------------|
A|-9-9-9-9-10-10--7----------------------------------------------------------|
E|--------------78-87--------------------------------------------------------|

Guitar 1 (play with guitar 2)
e|---------------------------------------------------------------------------|
B|---------------------------------------------------------------------------|
G|---------------------------------------------------------------------------|
D|-4444444444444444-9-9-9-9-9-9-9-9999999994444444444444444-9-9-9-9-9-9-9-9--|
A|-555555552222222210101010101010107777777755555555222222221010101010101010--|
E|---------------------------------------------------------------------------|
   ************************************************************************
e|---------------------------------------------------------------------------|
B|---------------------------------------------------------------------------|
G|---------------------------------------------------------------------------|
D|-999955554444444477777777--12/5--------------------------------------------|
A|-777777775555555555555555--12/5--------------------------------------------|
E|---------------------------10/3--------------------------------------------|
   ************************
Guitar 2 Verse-
e|---------------------------------------------------------------------------|
B|---------------------------------------------------------------------------|
G|--------------------0~~~~0~~~0~~~0~-------------------0~~~~0~~~0~~~0-------|
D|--404-404-404-404--9~9~~9~9~9~9~9~9-404~404~404~404--9~9~~9~9~9~9~9~9------|
A|-5~~~5~~~2~~~2~~~10~~~10~~~7~~~7~~~5~~~5~~~2~~~2~~~10~~~10~~~7~~~7~~~------|
E|---------------------------------------------------------------------------|

e|---------------------------------------------------------------------------|
B|---------------------------------------------------------------------------|
G|---------------------------------------------------------------------------|
D|--4~4~4~4~7~7~7~7----------------------------------------------------------|
A|-5~5~5~5~5~5~5~5~----------------------------------------------------------|
E|---------------------------------------------------------------------------|

Chorus
Guitar 1
e|---------------------------------------------------------------------------|
B|---------------------------------------------------------------------------|
G|---------5-5-55-5--------5-5-55-5------------------------------------------|
D|-5-5-55-55-5-55-52-2-22-25-5-55-5-X4---------------------------------------|
A|-5-5-55-53-3-33-32-2-22-23-3-33-3------------------------------------------|
E|-3-3-33-3--------0-0-00-0--------------------------------------------------|
Guitar 2
e|---------------------------------------------------------------------------|
B|---------------------------------------------------------------------------|
G|---------55555555--------55555555------------------------------------------|
D|-55555555555555552222222255555555-X4---------------------------------------|
A|-55555555333333332222222233333333------------------------------------------|
E|-33333333--------00000000--------------------------------------------------|


E|---------------------------------------------------------------------------|
B|---------------------------------------------------------------------------|
G|--------9~~~~~~------------------------------------------------------------|
D|--2~~~--9~~~~~~-2~~~2~~~-X2------------------------------------------------|
A|--2~~~--7~~~~~~-2~~~2~~~---------------------------------------------------|
E|--0~~~----------0~~~0~~~---------------------------------------------------|

E|---------------------------------------------------------------------------|
B|---------------------------------------------------------------------------|
G|--------9~~~~~~------------------------------------------------------------|
D|--2~~~--9~~~~~~------------------X2----------------------------------------|
A|--2~~~--7~~~~~~-----7------------------------------------------------------|
E|--0~~~----------7-8---8-7-8-7-8--------------------------------------------|

Guitar 2
e|---------------------------------------------------------------------------|
B|---------------------------------------------------------------------------|
G|---------------------------------------------------------------------------|
D|-55-5555-55-9-9--9-9--------X6---------------------------------------------|
A|-77-7777-771010-1010-7777--------------------------------------------------|
E|---------------------8888-0------------------------------------------------|
Guitar 1 (after above riff is played 4 times)
e|---------------------------------------------------------------------------|
B|---------------------------------------------------------------------------|
G|--------------------0~~~~0~~~0~~~0~-------------------0~~~~0~~~0~~~0-------|
D|--404-404-404-404--9~9~~9~9~9~9~9~9-404~404~404~404--9~9~~9~9~9~9~9~9------|
A|-5~~~5~~~2~~~2~~~10~~~10~~~7~~~7~~~5~~~5~~~2~~~2~~~10~~~10~~~7~~~7~~~------|
E|---------------------------------------------------------------------------|

e|---------------------------------------------------------------------------|
B|---------------------------------------------------------------------------|
G|---------------------------------------------------------------------------|
D|--4~4~4~4~7~7~7~7----------------------------------------------------------|
A|-5~5~5~5~5~5~5~5~----------------------------------------------------------|
E|---------------------------------------------------------------------------|

Chorus
Guitar 1
e|---------------------------------------------------------------------------|
B|---------------------------------------------------------------------------|
G|---------5-5-55-5--------5-5-55-5------------------------------------------|
D|-5-5-55-55-5-55-52-2-22-25-5-55-5-X4---------------------------------------|
A|-5-5-55-53-3-33-32-2-22-23-3-33-3------------------------------------------|
E|-3-3-33-3--------0-0-00-0--------------------------------------------------|
Guitar 2
e|---------------------------------------------------------------------------|
B|---------------------------------------------------------------------------|
G|---------55555555--------55555555------------------------------------------|
D|-55555555555555552222222255555555-X4---------------------------------------|
A|-55555555333333332222222233333333------------------------------------------|
E|-33333333--------00000000--------------------------------------------------|

Outro Guitar 1
E|---------------------------------------------------------------------------|
B|---------------------------------------------------------------------------|
G|--------9~~~~~~------------------------------------------------------------|
D|--2~~~--9~~~~~~------------------------------------------------------------|
A|--2~~~--7~~~~~~-----3------------------------------------------------------|
E|--0~~~----------2-3---3-2-3-2-3--------------------------------------------|

E|---------------------------------------------------------------------------|
B|---------------------------------------------------------------------------|
G|--------9~~~~~~------------------------------------------------------------|
D|--2~~~--9~~~~~~------------------------------------------------------------|
A|--2~~~--7~~~~~~-----3------------------------------------------------------|
E|--0~~~----------2-3---3----------------------------------------------------|

| /  slide up
| \  slide down
| h  hammer-on
| p  pull-off
| ~  vibrato
| +  harmonic
| x  Mute note
===============================================================================
Related for Okay I Believe You But My Tommy Gun Dont tab