Song name
# A B C D E F G H I J K L M N O P Q R S T U V W X Y Z

Brand New - Sic Transit Gloria Glory Fades tab

This is a pretty sweet song, the songs tuned a whole step down.

Verse
Chorus
Verse
Chorus
Bridge
Chorus

Eb |-------------------------------------------|
Bb |-------------------------------------------|
Gb |---9~--------------------------------------|
Db |---9~--------------------------------------|
Ab |---7~--------------------------------------|
Eb |-------------------------------------------|

Mute it here.
Eb |-------------------------------------------|
Bb |--xxxx-------------------------------------|
Gb |--xxxx-------------------------------------|
Db |--xxxx-------------------------------------|
Ab |--xxxx-------------------------------------|
Eb |--xxxx-------------------------------------|


Chorus:

Eb |-------------------------------------------|
Bb |-------------------------------------------|
Gb |--6-------4/6---9/11---9-------------------|
Db |--6---2---4/6---9/11---9---7---4---2-------|2 times
Ab |--4---2---2/4---7/-9---7---7---4---2-------|
Eb |------0--------------------5---2---0-------|

Just Mute it here
Eb |-------------------------------------------|
Bb |--xxxx-------------------------------------|
Gb |--xxxx-------------------------------------|
Db |--xxxx-------------------------------------|
Ab |--xxxx-------------------------------------|
Eb |--xxxx-------------------------------------|



Bridge: 

Guitar 1
Eb |-------------------------------------------------------|
Bb |-------------------------------------------------------|
Gb |-------------------------------------------------------|
Db |--6~------------------------------6~--------------9~---|
Ab |--4~------------------------------4~--------------7~---|
Eb |--4~------------------------------4~--------------7~---|

Eb |------------------------------------------------------|
Bb |------------------------------------------------------|
Gb |--------------------------------------------------9---|
Db |--6---7---6---7---4---2---4---2---6---7---6---7---x---|2 times
Ab |--4---7---4---7---4---2---4---2---4---7---4---7---7---|
Eb |--4---5---4---5---2---0---2---0---4---5---4---5-------|

Guitar 2
Eb |------------------------------------------|
Bb |--5p0-------5p0-------5p4-------5p4-------|
Gb |------66-6------66-6------44-4------44-4--|
Db |------------------------------------------|
Ab |------------------------------------------|
Eb |------------------------------------------|

Eb |------------------------------------------|
Bb |---5p0------5p0-------7p4-------7p4-------|
Gb |-------66-6-----66-6------44-4------44-4--|
Db |------------------------------------------|3 times
Ab |------------------------------------------|
Eb |------------------------------------------|

Mute the strings right here.
Eb |-------------------------------------------|
Bb |--xxxx-------------------------------------|
Gb |--xxxx-------------------------------------|
Db |--xxxx-------------------------------------|
Ab |--xxxx-------------------------------------|
Eb |--xxxx-------------------------------------|

Chorus

Eb |-------------------------------------------|
Bb |-------------------------------------------|
Gb |--6-------4/6---9/11---9-------------------|
Db |--6---2---4/6---9/11---9---7---4---2-------|
Ab |--4---2---2/4---7/-9---7---7---4---2-------|
Eb |------0--------------------5---2---0-------|

Eb |-------------------------------------------|
Bb |---------------------------xxxx------------|
Gb |--6-------4/6---9/11---9---xxxx------------|
Db |--6---2---4/6---9/11---9---xxxx------------|
Ab |--4---2---2/4---7/-9---7---xxxx------------|
Eb |------0--------------------xxxx------------|

That's it hope you enjoy.

tkf.


Tap to rate this tab
# A B C D E F G H I J K L M N O P Q R S T U V W X Y Z