Song name
# A B C D E F G H I J K L M N O P Q R S T U V W X Y Z

Brand New - Bought A Bride tab

Bought A Bride / Trees (name when it was a demo)
Brand New / Jesse Lacey

Tabbed from this video, added my own tid-bits from the studio version:
http://www.youtube.com/watch?v=DJDqlMN2aOE


Song structure:
Verse
Chorus
Verse
Chorus
Verse
Outro


Intro/verse:
e|-----------------------------------|
B|-----------------------------------|
G|-----------------------------------|
D|-----5---5---7---7---5---5---5-----|
A|-5h7---7---7---7---7---7---5---5---|
E|-----------------------------------| x 16



-----------------------------------------------------------------------------
Chorus:

e|------------------------------------|
B|------------------------------------|
G|-----0-------0-------0-------0------|
D|---5---5---5---5---5---5---5---5----|
A|-3-------3-------3-------3----------|
E|------------------------------------|

e|------------------------------------|
B|------------------------------------|
G|-----0-------0-------0----------0---|
D|---5---5---5---5---5---5----5-5-5---|
A|-0-------0-------0----------x-x-----|
E|----------------------------3-------|

End riff of the chorus:

e|------------------------------------|
B|------------------------------------|
G|------------------------------------|
D|------5----------5-5/------(5)------|
A|-5h7-----7---5---3-3/-or-(3---3~)---|  x 4
E|------------------------------------|


or



e|-------10-----------------------10-------12b13-12b13---|
B|-10h12----12-10--------10-10h12----12-10---------------|
G|----------------12-12----------------------------------|
D|-------------------------------------------------------| x4
A|-------------------------------------------------------|
E|-------------------------------------------------------|(studio version)


I play a hybrid version:

e|-----------------------------------|
B|-----------------------------------|
G|-----------------------------------|
D|------5----------5-5/------(5)-----|
A|-5h7-----7---5---3-3/-or-(3---3~)--|
E|-----------------------------------|

e|-----------------------------------|
B|-----------------------------------|
G|------------------7b9-7b9----------|
D|--------5--------------------------|
A|5--5h7-----7---5-------------------|
E|-----------------------------------|




-----------------------------------------------------------------------------

Ends on:

e|--------------------------------------------|
B|--------------------------------------------|
G|--------------------------------------------|
D|-----5---5---7---7---5---5---5--------------|
A|-5h7---7---7---7---7---7---5---5~---5h7~----|
E|--------------------------------------------|
Tap to rate this tab
 
# A B C D E F G H I J K L M N O P Q R S T U V W X Y Z