Song name
# A B C D E F G H I J K L M N O P Q R S T U V W X Y Z

Brand New - Seventy Times 7 tab

This is just how I play the bridge. May not be how they play it but it sounds pretty close.
Standard tuning.




Is that what you call tact, your as subtle as a brick in the small of the back
|------------------------------------------------------------------------|
|------------------------------------------------------------------------|
|------------5----6----5-------------------------------------------------|
|-----6---------------------6----3---------------------------------------|
|------------------------------------------------------------------------|
|-4----------------------------------------------------------------------|


So lets end this call and end this conversation
|------------------------------------------------------------------------|
|------------------------------------------------------------------------|
|------------3----5----3---------8---------------------------------------|
|-----6---------------------6--------------------------------------------|
|-6----------------------------------------------------------------------|
|------------------------------------------------------------------------|


And is that what you call a getaway, well tell me what you got away with
|------------------------------------------------------------------------|
|------------------------------------------------------------------------|
|------------5----6----5-------------------------------------------------|
|-----6---------------------6----3---------------------------------------|
|------------------------------------------------------------------------|
|-4----------------------------------------------------------------------|


Cause you left the frays from the ties you severed when you say best friends
means friends forever
|------------------------------------------------------------------------|
|------------------------------------------------------------------------|
|------------3----5----3---------8---------------------------------------|
|-----6---------------------6--------------------------------------------|
|-6----------------------------------------------------------------------|
|------------------------------------------------------------------------|
Tap to rate this tab
# A B C D E F G H I J K L M N O P Q R S T U V W X Y Z