Song name
# A B C D E F G H I J K L M N O P Q R S T U V W X Y Z

Brand New - Failure By Design tab

Song: Failure by Design
Artist: Brand New
Album: Your Favorite Weapon
Tabbed by: Aaron Greene

This is played with the guitar dropped down a half step! This is done by dropping the
E string down until the 6th fret on E matches the A string. Then you tune your guitar to
E string which is now an E flat. It would play the same in standard tuning, it would 
be in the wrong key.

Symbols
x=palm mute
/=slide up
\=slide down
~=let ring

Intro & verse 1
Play 3x
eb -----------------------------------------------------------------|
Bb --------------5-------------------------------------5------------|
Gb ---------------6-----------------5-------------------6---4-4-4-4-|
Db 2-2-2-2-2-4-6---6--2-2-2-2-2-4/6--6---2-2-2-2-2-4/6---6--4-4-4-4-|
Ab 2-2-2-2-2-4/6----4-2-2-2-2-2-4/6---6--2-2-2-2-2-4/6----4-2-2-2-2-|
Eb 0-0-0-0-0-2/4------0-0-0-0-0-2/4----4-0-0-0-0-0-2/4--------------|
     x x   x            x x   x            x x   x          x x

eb ----------------|
Bb ----------------|
Gb ----------------|
Db ----------------|
Ab 2-4-2-0-2-0-----|
Eb ------------4-0-|

Fill
eb -----------------------------------|
Bb -----------------------------------|
Gb -----------------------------------|
Db 2~~~~~-6~~~-6-7-6-2~~~~~-6-7-9-4-6-|
Ab 2~~~~~-6~~~-6-7-6-2~~~~~-6-7-9-4-6-|
Eb 0~~~~~-4~~~-4-5-4-0~~~~~-4-5-7-2-4-|

Chorus
Play 2x
eb ----------------------------------------------------|
Bb-----------------------------------------------------|
Gb --------------------------------6-6-6-6-6-6---------|
Db 7-7-7-7-7-7-7-7-2-2-2-2-2-2-2-2-6-6-6-6-6-6-4-4-6-6-|
Ab 7-7-7-7-7-7-7-7-2-2-2-2-2-2-2-2-4-4-4-4-4-4-4-4-6-6-|
Eb 5-5-5-5-5-5-5-5-0-0-0-0-0-0-0-0-------------2-2-4-4-|

2nd time:
eb ------|
Bb ------|
Gb ------|
Db 7~~~~~
Ab 7~~~~~
Eb 5~~~~~

Verse 2
Play 2x
eb -----------------------------------------------------------------|
Bb --------------5-------------------------------------5------------|
Gb ---------------6-----------------5-------------------6---4-4-4-4-|
Db 2-2-2-2-2-4-6---6--2-2-2-2-2-4/6--6---2-2-2-2-2-4/6---6--4-4-4-4-|
Ab 2-2-2-2-2-4/6----4-2-2-2-2-2-4/6---6--2-2-2-2-2-4/6----4-2-2-2-2-|
Eb 0-0-0-0-0-2/4------0-0-0-0-0-2/4----4-0-0-0-0-0-2/4--------------|
     x x   x            x x   x            x x   x          x x

eb ----------------|
Bb ----------------|
Gb ----------------|
Db ----------------|
Ab 2-4-2-0-2-0-----|
Eb ------------4-0-|

Fill
eb -----------------------------------|
Bb -----------------------------------|
Gb -----------------------------------|
Db 2~~~~~-6~~~-6-7-6-2~~~~~-6-7-9-4-6-|
Ab 2~~~~~-6~~~-6-7-6-2~~~~~-6-7-9-4-6-|
Eb 0~~~~~-4~~~-4-5-4-0~~~~~-4-5-7-2-4-|

Chorus
Play 2x
eb ----------------------------------------------------|
Bb-----------------------------------------------------|
Gb --------------------------------6-6-6-6-6-6---------|
Db 7-7-7-7-7-7-7-7-2-2-2-2-2-2-2-2-6-6-6-6-6-6-4-4-6-6-|
Ab 7-7-7-7-7-7-7-7-2-2-2-2-2-2-2-2-4-4-4-4-4-4-4-4-6-6-|
Eb 5-5-5-5-5-5-5-5-0-0-0-0-0-0-0-0-------------2-2-4-4-|

2nd time:
eb ------|
Bb ------|
Gb ------|
Db 7~~~~~
Ab 7~~~~~
Eb 5~~~~~

Bridge
Play 4x
eb ------------------------------|
Bb ------------------5-----------|
Gb ------------------------------|
Db 2-2-2-2-2-2-2-2-------4---4-6-|
Ab 2-2-2-2-2-2-2-2-4---4---7-----|
Eb 0-0-0-0-0-0-0-0---------------|
   x x x x x x x x

Doo-doo-doo part
Play 3x
eb --------------------------------|
Bb --------------------------------|
Gb ----------------6-6-6-6-4-4-4-4-|
Db 2-2-2-2-2-2-2-2-6-6-6-6-4-4-4-4-|
Ab 2-2-2-2-2-2-2-2-4-4-4-4-2-2-2-2-|
Eb 0-0-0-0-0-0-0-0-----------------|

4th time:
eb --------------------------|
Bb --------------------------|
Gb --------------------------|
Db 2-2-2-2-2-2-2-2-6-7-9-4-6-|
Ab 2-2-2-2-2-2-2-2-6-7-9-4-6-|
Eb 0-0-0-0-0-0-0-0-4-5-7-2-4-|

Chorus
Chorus
Play 2x
eb ----------------------------------------------------|
Bb-----------------------------------------------------|
Gb --------------------------------6-6-6-6-6-6---------|
Db 7-7-7-7-7-7-7-7-2-2-2-2-2-2-2-2-6-6-6-6-6-6-4-4-6-6-|
Ab 7-7-7-7-7-7-7-7-2-2-2-2-2-2-2-2-4-4-4-4-4-4-4-4-6-6-|
Eb 5-5-5-5-5-5-5-5-0-0-0-0-0-0-0-0-------------2-2-4-4-|

2nd time:
eb ------|
Bb ------|
Gb ------|
Db 7~~~~~
Ab 7~~~~~
Eb 5~~~~~
Tap to rate this tab
 
# A B C D E F G H I J K L M N O P Q R S T U V W X Y Z