Song name
# A B C D E F G H I J K L M N O P Q R S T U V W X Y Z

Brand New - The No Seatbelt Song tab

I've seen a lot of tabs get this wrong, and it was frustrating me, so I just threw 
this together quick... but it is 100% accurate. I've performed it several times this exact way.
Enjoy (:

Tuning: Drop D (Half step-down also, but is optional, that's how its played though)
 
This song can be played just fine with just the rhythm part, which is what I have 
tabbed out, if you are looking for the lead part (Vince's Part), you won't find that here, sorry. 

Jesse's part (Acoustic Guitar) Rhythm 

Chord Changes are easy, figure them out. Listen to the song. 

Intro/Verse
E|--------------------------------------------------|
B|--------------------------------------------------|
G|--11-11-11-11-11-11-11-11-11-11-11-11-11-11-11-11-|
D|--11-11-11-11-11-11-11-11-11-11-11-11-11-11-11-11-|
A|--9--9--9--9--9--9--9--9--0--0--0--0--0--0--0--0--|
D|--9--9--9--9--9--9--9--9--0--0--0--0--0--0--0--0--|

E|--------------------------------------------------|
B|--------------------------------------------------|
G|--11-11-11-11-11-11-11-11-11-11-11-11-9--9--9--9--|
D|--11-11-11-11-11-11-11-11-11-11-11-11-9--9--9--9--|
A|--9--9--9--9--9--9--9--9--0--0--0--0--7--7--7--7--|
D|--9--9--9--9--9--9--9--9--0--0--0--0--7--7--7--7--|

E|--------------------------------------------------|
B|--------------------------------------------------|
G|--7--7--7--7--7--7--7--7--9--9--9--9--9--9--9--9--|
D|--7--7--7--7--7--7--7--7--9--9--9--9--9--9--9--9--|
A|--5--5--5--5--5--5--5--5--7--7--7--7--7--7--7--7--|
D|--5--5--5--5--5--5--5--5--7--7--7--7--7--7--7--7--|

E|--------------------------------------------------|( A couple extra beats 
B|--------------------------------------------------| on this last chord,
G|--7--7--7--7--7--7--7--7--7--7--7----7------------| just listen to it and
D|--7--7--7--7--7--7--7--7--7--7--7----7-(hold)-----| you will get the feel
A|--5--5--5--5--5--5--5--5--5--5--5----5------------| for it)
D|--5--5--5--5--5--5--5--5--5--5--5----5------------|

Chorus (Repeat)

E|--------------------------------------------------|
B|--------------------------------------------------|
G|--11-11-11-11-11-11-11-11-11-11-11-11-11-11-11-11-|
D|--11-11-11-11-11-11-11-11-11-11-11-11-11-11-11-11-|
A|--9--9--9--9--9--9--9--9--0--0--0--0--0--0--0--0--|
D|--9--9--9--9--9--9--9--9--0--0--0--0--0--0--0--0--|

Right after the Chorus, in between the Chorus and the verse...
E|--------------------------------------------------|
B|--------------------------------------------------|
G|--9--9--9--9--9--9--9--9--------------------------|
D|--9--9--9--9--9--9--9--9--------------------------|
A|--7--7--7--7--7--7--7--7--------------------------|
D|--7--7--7--7--7--7--7--7--------------------------|

For the Bridge, Jesse's guitar part stops, but you can just palm mute and play the 
open strings to simulate Vince's part and to keep the beat.
Tap to rate this tab
# A B C D E F G H I J K L M N O P Q R S T U V W X Y Z