Song name
# A B C D E F G H I J K L M N O P Q R S T U V W X Y Z

Brand New - The Quient Things That No One Ever Knows tab

ARTIST: Brand New
SONG: The Quiet Things That No One Ever Knows 
TABBED BY: Music2myearhole
EMAIL: Marxyooj@gmail.com

TUNING: Eb Ab Db Gb Bb eb

My First time submitting tabs 

p - Pull Off

/ - Slide down from

\ - Slide Up from

. - Palm mute

(x#) - Number of strums 




INTRO

eb|---3p2---2------3p2----0-----3p2---2-----3p2---2--3/5------|
Bb|-------3---3---------3---3-------3---3--------3--3---------|
Gb|-----------------------------------------------------------|
Db|----------------------------------------0------------------|
Ab|----------------------------3------------------------------|
Eb|-3------------0--------------------------------------------|

CHORUS

Rhythm Guitar (All down strum)

eb|-----------------------------------------------------------|
Bb|-----------------------------------------------------------|
Gb|-----------------5-------7---------------------------------| (Repeat x2)
Db|-5-------2-------5-(x8)--7-(x8)----------------------------|
Ab|-5-(x8)--2-(x8)--3-------5---------------------------------|
Eb|-3-------0-------------------------------------------------|

Lead Guitar 

eb|----------10-------------------10--------------------------|  
Bb|-7h8-7h8------8-7h8---7h8-7h8------8-7h8-------------------|
Gb|-----------------------------------------------------------| (Repeat x2)
Db|-----------------------------------------------------------|
Ab|-----------------------------------------------------------|
Eb|-----------------------------------------------------------|
                     
eb|--------------15-------------------------15----------------|
Bb|-12h13-12h13------13-12h13--12h13-12h13------13-12h13------|
Gb|-----------------------------------------------------------|
Db|-----------------------------------------------------------|
Ab|-----------------------------------------------------------|
Eb|-----------------------------------------------------------|

eb|----------10-------------------10--------------------------|
Bb|-7h8-7h8------8-7h8---7h8-7h8------8-7h8-------------------|
Gb|-----------------------------------------------------------|
Db|-----------------------------------------------------------|
Ab|-----------------------------------------------------------|
Eb|-----------------------------------------------------------|

eb|----------10-------------------10--------------------------|
Bb|-7h8-7h8------8-7h8---7h8-7h8------8-7h8-------------------|
Gb|-----------------------------------------------------------|
Db|-----------------------------------------------------------|
Ab|-----------------------------------------------------------|
Eb|-----------------------------------------------------------|

eb|--------------15-------------------------15----------------|
Bb|-12h13-12h13------13-12h13--12h13-12h13------13-12h13------|
Gb|-----------------------------------------------------------|
Db|-----------------------------------------------------------|
Ab|-----------------------------------------------------------|
Eb|-----------------------------------------------------------|

eb|----------10-------------------10--------------------------|
Bb|-7h8-7h8------8-7h8---7h8-7h8------8-7h8-------------------|
Gb|-----------------------------------------------------------|
Db|-----------------------------------------------------------|
Ab|-----------------------------------------------------------|
Eb|-----------------------------------------------------------|

eb|--------------15-------------------------15----------------|
Bb|-12h13-12h13------13-12h13--12h13-12h13------13-12h13------|
Gb|-----------------------------------------------------------|
Db|-----------------------------------------------------------|
Ab|-----------------------------------------------------------|
Eb|-----------------------------------------------------------|

VERSE  

RHYTHM GUITAR

eb|-----------------------------------------------------------|
Bb|-----------------------------------------------------------|
Gb|-----------------------------------------------------------|
Db|---------------5(x16)-----------5(x16)---------------------|
Ab|-5-5----5(x16)-3--------2(x16)--3--------------------------|
Eb|-3-3--8\3---------------0----------------------------------|
    . .    .      .        .       .

LEAD GUITAR  (comes in second half of verse)

eb|-----------------------------------------------------------|
Bb|-----------------------------------------------------------|
Gb|-----------------------------------------------------------|
Db|-5---4---5------5---4---5------5---4---5-------------------|
Ab|---5---5---5------5---5---5------5---5---5-----------------|
Eb|-----------------------------------------------------------|
Tap to rate this tab
# A B C D E F G H I J K L M N O P Q R S T U V W X Y Z