Song name
# A B C D E F G H I J K L M N O P Q R S T U V W X Y Z

Brand New - The Boy Who Blocked His Own Shot tab

Help us improve GuitareTab! Take a short survey!
Brand New
The Boy Who Blocked His Own Shot

Amazing Tune!!

Here's my tab, enjoy
Tuning is in Eb (half-step down)

Gtr. 1 (acoustic)
Gtr. 2 (electric)


Intro- Gtr. 1
---3------3-----3---------10----10---10------3----3--|
---0------1-----0----------0-----0----0------0----3--|
---0------0-----0----------0-----0----0------0----0--|
---0------0-----0----------0-----7----0------2----2--|
---2------2-----2----------9-----9----9------3----3--|
---3------3-----3---------10----10---10--------------|


1st verse is the same progression

Chorus
----10------3----5-----5----3---3----|
-----0------0----0-----2----0---3----|
-----0-(or)-0----0-(or)0----0---0----|
-----9------0----4-----4----2---2----|
----10------2----5-----5----3---3----|
------------3------------------------|


Post Chorus, Gtr. 1 does the intro again

Gtr. 2 comes in
---------------------------------------------------|
---------------------------------------------------|
----12----16---14----14--11--12----12---9----7-----|
---------------------------------------------------|
----10----14---12----12---9--10----10---7----5-----|
---------------------------------------------------|


Verse 2

Gtr. 1 is the same

Gtr. 2 has these little licks thrown in
Listen to the song to get where they go

------------10---|
-----7--8--------|
--9--------------|
-----------------|
-----------------|
-----------------|
"move out of this state"

-------------------------|
--------------------8----|
----------------7--------|
---7---5-----7-----------|
-------------------------|
-------------------------|
"your way....."

------------10---|
-----7--8--------|
--9--------------|
-----------------|
-----------------|
-----------------|
"take your pictures all down"

-------------------------|
--------------------8----|
----------------7--------|
---7---5-----7-----------|
-------------------------|
-------------------------|
"paint myself out......"


Gtr. 2
------------------------------|
------------------------------|
-----12------7-----12---------|
------------------------------|
-----10------5-----10---------|
------------------------------|
"it's cold as a tomb"

play that twice

at the end of each one theres this lick

------------------------|
-----------8-7----------|
---5---7-------9--7-----|
---------------------9--|
------------------------|
------------------------|

then it's the chorus again
played the same way


the ending is played the same as the verse
and then electric guitar plays the same line
as after the chorus

and that's about it
it might look like a rough tab
but it's not hard to put the pieces where they belong

just have fun with it
Gerra
Related for The Boy Who Blocked His Own Shot tab