Song name
# A B C D E F G H I J K L M N O P Q R S T U V W X Y Z

Brand New - The No Seatbelt Song tab

Help us improve GuitareTab! Take a short survey!
-------------------------------------------------------------------------------
		       THE NO SEATBELT SONG - Brand New
-------------------------------------------------------------------------------
Tabbed by: Robert Piller
Email: nothin7@hotmail.com

Tuning: Drop D, up a half step

-GUITAR 1-

Intro/Verse
E|--------0-------------------------------0--------------------------|
B|------------0-----------3-------------------0-----------3---0------|
G|------6-------6-------6-----6---------6-------6-------6-------6----|
D|----4-----------0---4---------4-----4-----------0---4-----------4--|
A|--2---------------5-------------5-2---------------5----------------|
D|-------------------------------------------------------------------|
    1 + 2 + 3 + 4 + 1 + 2 + 3 + 4 + 1 + 2 + 3 + 4 + 1 + 2 + 3 + 4 +   

E|--------------------------------------------------0----------------|
B|--------3---------------3---------------3---------3----------------|
G|------6-----6---------6---------------6-----6-----0----------------|
D|----4---------4-----4---------------4---------4---4----------------|
A|--0-------------------------------0---------------x-------------0--|
D|----------------0-5-----------------------------0-5----------------|
    1 + 2 + 3 + 4 + 1 + 2 + 3 + 4 + 1 + 2 + 3 + 4 + 1 + 2 + 3 + 4 +   

Chorus
E|------2---0h2-2-------5---0h5-5-------2---0h2-2-------5-------5----|
B|----2---2-------2---5---5-------5---2---2-------2---5---5-5h7---5--|
G|-------------------------------------------------------------------|
D|--------------------------------------------------0----------------|
A|--2---------------5---------------2--------------------------------|
D|-------------------------------------------------------------------|
    1 + 2 + 3 + 4 + 1 + 2 + 3 + 4 + 1 + 2 + 3 + 4 + 1 + 2 + 3 + 4 +   

E|--------------------------------------------------------------------|
B|--------------------------------------------------------------------|
G|------12-11---9---------7-14---7---------12-11---9---------7-9---7--|
D|-------x--x---x---------x--x---x----------x--x---x---------x-x---x--|
A|------10--9---7---------5-12---5---------10--9---7---------5-7---5--|
D|--------------------------------------------------------------------|
    1 +  2  + 3 + 4 + 1 + 2  + 3 + 4 + 1 +  2  + 3 + 4 + 1 + 2 + 3 +   

  another electric guitar seems to be doing something like this:
E|----------0---------------0---------------0---------------0--------|
B|------------0---------------0---------------0---------------0------|
G|-------------------------------------------------------------------|
D|-------------------------------------------------------------------|
A|-------------------------------------------------------------------|
D|-------------------------------------------------------------------|
    1 + 2 + 3 + 4 + 1 + 2 + 3 + 4 + 1 + 2 + 3 + 4 + 1 + 2 + 3 + 4 +   

E|--0-----0-----0---0-----0-----0---0-----0-----0---0-----0-----0---0--|
B|--0-----0-----0---0-----0-----0---0-----0-----0---0-----0-----0---0--|
G|------------------------------------------------------------------2--|
D|------------------------------------------------------------------2--|
A|------------------------------------------------------------------0--|
D|---------------------------------------------------------------------|
    1 + 2 + 3 + 4 + 1 + 2 + 3 + 4 + 1 + 2 + 3 + 4 + 1 + 2 + 3 + 4 + 1   

  for the second half, you can combine all three parts as follows:
E|--0---3-2---0-----0-----5---0-----0---3-2---0-----0---------0-----0--|
B|--0---x-x---0-----0-----x---0-----0---x-x---0-----0-----5---0-----0--|
G|--4-4-4-4---4-4-4-7-7-7-7---7-7-7-4-4-4-4---4-4-4-7-7-7-7---7-7-7-2--|
D|--4-4-4-4---4-4-4-7-7-7-7---7-7-7-4-4-4-4---4-4-4-7-7-7-7---7-7-7-2--|
A|--2-2-2-2---2-2-2-5-5-5-5---5-5-5-2-2-2-2---2-2-2-5-5-5-5---5-5-5-0--|
D|------------------0-0-0-0---0-0-0-----------------0-0-0-0---0-0-0----|
    1 + 2 + 3 + 4 + 1 + 2 + 3 + 4 + 1 + 2 + 3 + 4 + 1 + 2 + 3 + 4 + 1   

Bridge (palm muted)
E|-------------------------------------------------------------------------|
B|-------------------------------------------------------------------------|
G|-------------------------------------------------------------------------|
D|-------------------------------------------------------------------------|
A|--9-9-7-9---7-9-7-12-12-9-12---9-12-9-7-7-11-7---7-11-7-5-5-7-5---5-7-5--|
D|--9-9-7-9---7-9-7-12-12-9-12---9-12-9-7-7-11-7---7-11-7-5-5-7-5---5-7-5--|
    1 + 2 + 3 + 4 +  1  + 2  + 3 +  4 + 1 +  2 + 3 +  4 + 1 + 2 + 3 + 4 +   

-GUITAR 2-

Intro/Verse
E|-------------------------------------------------------------------|
B|-------------------------------------------------------------------|
G|--4-4-4-4-4-4-4-4--------------------------------------------------|
D|--4-4-4-4-4-4-4-4-0-0-0-0-0-0-0-0-2-2-2-2-2-2-2-2-5-5-5-5-4-4-4-4--|
A|--2-2-2-2-2-2-2-2-0-0-0-0-0-0-0-0-2-2-2-2-2-2-2-2-5-5-5-5-4-4-4-4--|
D|------------------0-0-0-0-0-0-0-0-2-2-2-2-2-2-2-2-5-5-5-5-4-4-4-4--|
    1 + 2 + 3 + 4 + 1 + 2 + 3 + 4 + 1 + 2 + 3 + 4 + 1 + 2 + 3 + 4 +   

E|-------------------------------------------------------------------|
B|-------------------------------------------------------------------|
G|-------------------------------------------------------------------|
D|--7-7-7-7-7-7-7-7-5-5-5-5-5-5-5-5-7-7-7-7-7-7-7-7-5----------------|
A|--7-7-7-7-7-7-7-7-5-5-5-5-5-5-5-5-7-7-7-7-7-7-7-7-5----------------|
D|--7-7-7-7-7-7-7-7-5-5-5-5-5-5-5-5-7-7-7-7-7-7-7-7-5----------------|
    1 + 2 + 3 + 4 + 1 + 2 + 3 + 4 + 1 + 2 + 3 + 4 + 1 + 2 + 3 + 4 +   

Chorus
E|-------------------------------------------------------------------|
B|-------------------------------------------------------------------|
G|--4-4-4-4-4-4-4-4-----------------4-4-4-4-4-4-4-4------------------|
D|--4-4-4-4-4-4-4-4-0-0-0-0-0-0-0-0-4-4-4-4-4-4-4-4-0-0-0-0-0-0-0-0--|
A|--2-2-2-2-2-2-2-2-0-0-0-0-0-0-0-0-2-2-2-2-2-2-2-2-0-0-0-0-0-0-0-0--|
D|------------------0-0-0-0-0-0-0-0-----------------0-0-0-0-0-0-0-0--|
    1 + 2 + 3 + 4 + 1 + 2 + 3 + 4 + 1 + 2 + 3 + 4 + 1 + 2 + 3 + 4 +   


E|---------------------------------------------------------------------|
B|---------------------------------------------------------------------|
G|--4-4-4-4-4-4-4-4-----------------4-4-4-4-4-4-4-4-----------------2--|
D|--4-4-4-4-4-4-4-4-0-0-0-0-0-0-0-0-4-4-4-4-4-4-4-4-0-0-0-0-0-0-0-0-2--|
A|--2-2-2-2-2-2-2-2-0-0-0-0-0-0-0-0-2-2-2-2-2-2-2-2-0-0-0-0-0-0-0-0-0--|
D|------------------0-0-0-0-0-0-0-0-----------------0-0-0-0-0-0-0-0----|
    1 + 2 + 3 + 4 + 1 + 2 + 3 + 4 + 1 + 2 + 3 + 4 + 1 + 2 + 3 + 4 + 1   


| /  slide up
| \  slide down
| h  hammer-on
| p  pull-off
| ~  vibrato
| +  harmonic
| x  Mute note
===============================================================================
Related for The No Seatbelt Song tab