Song name
# A B C D E F G H I J K L M N O P Q R S T U V W X Y Z

Brand New - Logan To Government Center tab

Tuning: Drop D

 Intro
  Q=90
  A5                  F#5               D5
 4/4
  Gtr I
|-------------------------------------|------------------------------------|
|-------------------------------------|-------------------------------5----|
|-------------------------------------|-------4-------4-------4---------4--|
|------7---9-7--------------6-9-7-6-9-|-----6---4-(4)---4-(4)---4-(4)-----6|
|---7----7------9---5---5-------------|---4--------------------------------|
|-7-------------------4---------------|-0----------------------------------|
|
| Gtr II
|-------------------------------------|------------------------------------|
|-------------------------------------|------------------------------------|
|-----11p==9---(9)-11-----------------|------------------------------------|
|-------------------------------------|------------------------------------|
|---7---------------------------------|------------------------------------|
|-7-----------------------------------|------------------------------------|
|
| Gtr III
|--------------------------------|---------------------------------------|
|--------------------------------|---------------------------------------|
|--------------------------------|---------------------------------------|
|--------------------------------|---------------------------------------|
|-77-7-77-7--7-7-4-4-4-4-4-4-4-4-|-0-0-0-0-0--0--0-0--0--0-0--0--0-0-0-0-|
|-77-7-77-7--7-7-4-4-4-4-4-4-4-4-|-0-0-0-0-0--0--0-0--0--0-0--0--0-0-0-0-|


   Verse
    A5                 F#5
||-------------------------------------|
||o------------------------------------|
||-------------------------------------|
||-------7---9--7------------6-9-7-6-9-|
||o---7----7------9--5---5-------------|
||--7------------------4---------------|

||-------------------------------------|
||o------------------------------------|
||------11p==9-11p9-11-----------------|
||-------------------------------------|
||o---7--------------------------------|
||--7----------------------------------|

||-------------------------------------|
||o------------------------------------|
||-------------------------------------|
||-------------------------------------|
||o-7-7--7-7-7--7-7--7-4-4-4-4-4-4-4-4-|
||--7-7--7-7-7--7-7--7-4-4-4-4-4-4-4-4-|

  D5
|----------------------------------------||
|-------------------------------5-------o||
|-------4-------4-------4---------4---4--||
|-----6---4-(4)---4-(4)---4-(4)-----6----||
|---4-----------------------------------o||
|-0--------------------------------------||

|----------------------------------------||
|---------------------------------------o||
|----------------------------------------||
|----------------------------------------||
|-0-0-0-0-0--0--0-0--0--0-0--0--0-0-0-0-o||
|-0-0-0-0-0--0--0-0--0--0-0--0--0-0-0-0--||


  |-----------------------------------|------------------------------------|
|-------------------------------------|-------------------------------5----|
|-------------------------------------|-------4-------4-------4---------4--|
|------7---9-7--------------6-9-7-6-9-|-----6---4-(4)---4-(4)---4-(4)-----6|
|---7----7------9---5---5-------------|---4--------------------------------|
|-7-------------------4---------------|-0----------------------------------|
|
| Gtr II
|-------------------------------------|------------------------------------|
|-------------------------------------|------------------------------------|
|-----11p==9---(9)-11-----------------|------------------------------------|
|-------------------------------------|------------------------------------|
|---7---------------------------------|------------------------------------|
|-7-----------------------------------|------------------------------------|
|
| Gtr III
|--------------------------------|---------------------------------------|
|--------------------------------|---------------------------------------|
|--------------------------------|---------------------------------------|
|--------------------------------|---------------------------------------|
|-77-7-77-7--7-7-4-4-4-4-4-4-4-4-|-0-0-0-0-0--0--0-0--0--0-0--0--0-0-0-0-|
|-77-7-77-7--7-7-4-4-4-4-4-4-4-4-|-0-0-0-0-0--0--0-0--0--0-0--0--0-0-0-0-|

  $
  A5               F#5               D5
   >
|----------------------------------|-------------------------------------|
|----------------------------------|-------------------------------------|
|-11-------------------------------|-(11)--------------------------------|
|----------------------------------|-------------------------------------|
|----------------------------------|-------------------------------------|
|----------------------------------|-------------------------------------|
|
| Gtrs III, IV
|----------------------------------|-------------------------------------|
|----------------------------------|-------------------------------------|
|----------------------------------|-------------------------------------|
|----------------------------------|-------------------------------------|
|--7-7-7-7-7-7-7-7-4-4-4-4-4-4-4-4-|---0--0-0-0-0-0-0-0-0-0-0-0-0-0-0-0--|
|--7-7-7-7-7-7-7-7-4-4-4-4-4-4-4-4-|---0--0-0-0-0-0-0-0-0-0-0-0-0-0-0-0--|


  A5              F#5               D5
  Gtrs III, IV
|---------------------------------|----------------------------------|
|---------------------------------|----------------------------------|
|---------------------------------|----------------------------------|
|---------------------------------|----------------------------------|
|-7-7-7-7-7-7-7-7-4-4-4-4-4-4-4-4-|-0-0-0-0-0-0-0-0-0-0-0-0-0-0-0-0--|
|-7-7-7-7-7-7-7-7-4-4-4-4-4-4-4-4-|-0-0-0-0-0-0-0-0-0-0-0-0-0-0-0-0--|



  A5
|------------------------------------|
|------------------------------------|
|------------------------------------|
|------7---9--7------------6-9-7-6-9-|
|---7----7------9--5---5-------------|
|-7------------------4---------------|
|
|------------------------------------|
|------------------------------------|
|-----11p==9-11p9-11-----------------|
|------------------------------------|
|---7--------------------------------|
|-7----------------------------------|
|
|------------------------------------|
|------------------------------------|
|------------------------------------|
|-7-7--7-7-7--7-7--7-7-7-7-7-7-7-7-7-|
|-7-7--7-7-7--7-7--7-7-7-7-7-7-7-7-7-|
|-7-7--7-7-7--7-7--7-7-7-7-7-7-7-7-7-|


|----------------------------------------------|
|---------------------------------5------------|
|-------4-------4-------4------------4-----4---|
|-----6---4-(4)---4-(4)----4--(4)-------6------|
|---4------------------------------------------|
|-0--------------------------------------------|
|
| Gtr IV
|                    TP TP TP  TP TP TP TP TP
|----------------------------------------------|
|----------------------------------------------|
|----------------------------------------------|
|--------------------x\\-x\\-x\\--x\\-x\\-x\\-x\\-x\\--|
|--------------------x\\-x\\-x\\--x\\-x\\-x\\-x\\-x\\--|
|----------------------------------------------|
|
|----------------------------------------------|
|----------------------------------------------|
|----------------------------------------------|
|-7-7-7-7-7--7--7-7--7--7--7---7--7--7--7--7---|
|-7-7-7-7-7--7--7-7--7--7--7---7--7--7--7--7---|
|-7-7-7-7-7--7--7-7--7--7--7---7--7--7--7--7---|


   Chorus
    A5        NB5.
    Gtr III
||-----------------------------|
||o----------------------------|
||-----------------------------|
||--7-7-7-7-7--9-9-9-9-9-9-9-9-|
||o-7-7-7-7-7--9-9-9-9-9-9-9-9-|
||--7-7-7-7-7--9-9-9-9-9-9-9-9-|
|
|   Gtr IV
||-----------------------------|
||o----------------------------|
||-----------------------------|
||--7-7-7-7-7--9-9-9-9-9-9-9-9-|
||o-7-7-7-7-7--9-9-9-9-9-9-9-9-|
||--7-7-7-7-7--9-9-9-9-9-9-9-9-|


                                                 To Coda
  D5
|---------------------------------------------------------||
|--------------------------------------------------------o||
|-7-(7)-7-7-7-7-7-7---------------------------------------||
|-7-(7)-7-7-7-7-7-7-7-(7)-6---(6)-4-(4)-6-----(6)---(6)---||
|-5-(5)-5-5-5-5-5-5--------------------------------------o||
|---------------------------------------------------------||
|
|---------------------------------------------------------||
|--------------------------------------------------------o||
|-7-(7)-7-7-7-7-7-7-7-(7)---7-----7--7----7-7-----7-------||
|-7-(7)-7-7-7-7-7-7-7-(7)---7-----7--7----7-7-----7-------||
|-5-(5)-5-5-5-5-5-5-5-(5)---5-----5--5----5-5-----5------o||
|---------------------------------------------------------||


 
   Chorus (continued)
                                1.
    &
    A5        NB5.               D5
    Gtrs III, IV
||-----------------------------|--------------------------------------||
||o----------------------------|-------------------------------------o||
||-----------------------------|-7-(7)-7-7-7-7-7-7-7-(7)-7-7-7-7-7-7--||
||--7-7-7-7-7--9-9-9-9-9-9-9-9-|-7-(7)-7-7-7-7-7-7-7-(7)-7-7-7-7-7-7--||
||o-7-7-7-7-7--9-9-9-9-9-9-9-9-|-5-(5)-5-5-5-5-5-5-5-(5)-5-5-5-5-5-5-o||
||--7-7-7-7-7--9-9-9-9-9-9-9-9-|--------------------------------------||


 Bridge
  2.
  D5                                D5
  Gtr III
|---------------------------------|----------------------------------|
|---------------------------------|----------------------------------|
|---------------------------------|----------------------------------|
|-7p6-----7p6-----7p6-----7p6-----|-7p6-----7p6-----7p6-----7p6------|
|-----7h9-----7h9-----7h9-----7h9-|-----7h9-----7h9-----7h9-----7h9--|
|---------------------------------|----------------------------------|
|
| Gtr IV
|---------------------------------|----------------------------------|
|---------------------------------|----------------------------------|
|-7-7-7-7-7-7-7-7-7-7-7-7-7-7-7-7-|-7-7-7-7-7-7-7-7-7-7-7-7-7-7-7-7--|
|-7-7-7-7-7-7-7-7-7-7-7-7-7-7-7-7-|-7-7-7-7-7-7-7-7-7-7-7-7-7-7-7-7--|
|-5-5-5-5-5-5-5-5-5-5-5-5-5-5-5-5-|-5-5-5-5-5-5-5-5-5-5-5-5-5-5-5-5--|
|---------------------------------|----------------------------------|


   Interlude
    F#5                       N.CA5
    Gtr IV
||-----------------------------|---------------------------------------||
||o----------------------------|--------------------------------------o||
||--------9-----------------9--|-9-----9-------------------------------||
||----7-------7---(7)---7------|-----------11p9---(9)-11p9---(9)-7-----||
||o-9--------------------------|--------------------------------------o||
||-----------------------------|---------------------------------------||
|
|   Gtr III
||-----------------------------|---------------------------------------||
||o----------------------------|--------------------------------------o||
||-----------------------------|---------------------------------------||
||--4-4-4-4-4-4-4--4--4-4-4-4--|-7-7-7-7-7--7-7-7--7---7-7-7--7--7-7---||
||o-4-4-4-4-4-4-4--4--4-4-4-4--|-7-7-7-7-7--7-7-7--7---7-7-7--7--7-7--o||
||--4-4-4-4-4-4-4--4--4-4-4-4--|-7-7-7-7-7--7-7-7--7---7-7-7--7--7-7---||


  F#5                             A5
|-------------------------------|----------------------------------|
|-------------------------------|----------------------------------|
|-------------------------------|----------------------------------|
|---2---4-2---------2---4-2-2---|---2---4-2---/7---(7)-6-------6---|
|-4-----------4---4-------------|-4------------------------9-------|
|-------------------------------|----------------------------------|
|
|-------------------------------|----------------------------------|
|-------------------------------|----------------------------------|
|-------------------------------|----------------------------------|
|-4-4-4-4-4-4-4-4-4-4-4-4-4-4-4-|-7-7-7-7-7-7--7-7--7--7-7-7-7-7-7-|
|-4-4-4-4-4-4-4-4-4-4-4-4-4-4-4-|-7-7-7-7-7-7--7-7--7--7-7-7-7-7-7-|
|-4-4-4-4-4-4-4-4-4-4-4-4-4-4-4-|-7-7-7-7-7-7--7-7--7--7-7-7-7-7-7-|


  F#5                             A5
|-------------------------------|------------------------------------|
|-------------------------------|------------------------------------|
|-------------------------------|------------------------------------|
|---2---4-2---------2---4-2-2---|-/12-----(12)---11-------(11)-------|
|-4-----------4---4-------------|--------------------------------12--|
|-------------------------------|------------------------------------|
|
|-------------------------------|------------------------------------|
|-------------------------------|------------------------------------|
|-------------------------------|------------------------------------|
|-4-4-4-4-4-4-4-4-4-4-4-4-4-4-4-|---7-7-7---7--7--7-7-7-7---7--7--7--|
|-4-4-4-4-4-4-4-4-4-4-4-4-4-4-4-|---7-7-7---7--7--7-7-7-7---7--7--7--|
|-4-4-4-4-4-4-4-4-4-4-4-4-4-4-4-|---7-7-7---7--7--7-7-7-7---7--7--7--|


  A5
    >
|-------------|-------------|-------------|---------|
|-------------|-------------|-------------|---------|
|-------------|-------------|-------------|---------|
|-------------|-------------|-------------|---------|
|-(12)--------|-(12)--------|-(12)--------|-(12)----|
|-------------|-------------|-------------|---------|
|
|   >
|-------------|-------------|-------------|---------|
|-------------|-------------|-------------|---------|
|-------------|-------------|-------------|---------|
|--(7)--------|--(7)--------|--(7)--------|--(7)----|
|--(7)--------|--(7)--------|--(7)--------|--(7)----|
|--(7)--------|--(7)--------|--(7)--------|--(7)----|


   Breakdown
    A5              F#5               D5
    PM----------------------------------|   PM|   PM|   PM|
||----------------------------------|------------------------------------||
||o---------------------------------|-----------------------------------o||
||----------------------------------|------------------------------------||
||------7-----7---------6-----6-----|-----7-----4-----2-----4---2---(2)--||
||o---------------------------------|-----------------------------------o||
||--7-7-7-7-7-7-7-7-4-4-4-4-4-4-4-4-|-0-0---0-0---0-0---0-0--------------||
|
|   PM--|   PM  PM------|   PM  PM--------|   PM  PM------|   PM  PM|
||----------------------------------|------------------------------------||
||o---------------------------------|-----------------------------------o||
||----------------------------------|------------------------------------||
||--------7---7-----------4---4-----|-------0---0-----------0---0--------||
||o-7-7-7-7-7-7-7-7-4-4-4-4-4-4-4-4-|-0-0-0-0-0-0-0-0-0-0-0-0-0-0-0--0--o||
||--7-7-7-7-7-7-7-7-4-4-4-4-4-4-4-4-|-0-0-0-0-0-0-0-0-0-0-0-0-0-0-0--0---||


   Out-Chorus
    A5        NB5.               D5
    Gtrs III, IV
||-----------------------------|--------------------------------------||
||o----------------------------|-------------------------------------o||
||-----------------------------|-7-(7)-7-7-7-7-7-7-7-(7)-7-7-7-7-7-7--||
||--7-7-7-7-7--9-9-9-9-9-9-9-9-|-7-(7)-7-7-7-7-7-7-7-(7)-7-7-7-7-7-7--||
||o-7-7-7-7-7--9-9-9-9-9-9-9-9-|-5-(5)-5-5-5-5-5-5-5-(5)-5-5-5-5-5-5-o||
||--7-7-7-7-7--9-9-9-9-9-9-9-9-|--------------------------------------||


  A5                  B5
|-----------------------------------------|
|-----------------------------------------|
|-----------------------------------------|
|-7-(7)-7-7-7-7-(7)-7-9-(9)-9-9-9-9-(9)-9-|
|-7-(7)-7-7-7-7-(7)-7-9-(9)-9-9-9-9-(9)-9-|
|-7-(7)-7-7-7-7-(7)-7-9-(9)-9-9-9-9-(9)-9-|


  D5
|------------------------------------------|
|------------------------------------------|
|-7-(7)-7-7-7-7-(7)-7-7-(7)-7-7-7-7-(7)-7--|
|-7-(7)-7-7-7-7-(7)-7-7-(7)-7-7-7-7-(7)-7--|
|-5-(5)-5-5-5-5-(5)-5-5-(5)-5-5-5-5-(5)-5--|
|------------------------------------------|


  A5                  B5                    D5
|-----------------------------------------|------|
|-----------------------------------------|------|
|-----------------------------------------|-7----|
|-7-(7)-7-7-7-7-(7)-7-9-(9)-9-9-9-9-(9)-9-|-7----|
|-7-(7)-7-7-7-7-(7)-7-9-(9)-9-9-9-9-(9)-9-|-5----|
|-7-(7)-7-7-7-7-(7)-7-9-(9)-9-9-9-9-(9)-9-|------|


  D5
   >
|------------|------------|--------*|
|------------|------------|--------*|
|-(7)--------|-(7)--------|-(7)----*|
|-(7)--------|-(7)--------|-(7)----*|
|-(5)--------|-(5)--------|-(5)----*|
|------------|------------|--------*|
Tap to rate this tab
# A B C D E F G H I J K L M N O P Q R S T U V W X Y Z