Song name
# A B C D E F G H I J K L M N O P Q R S T U V W X Y Z

Brand New - I Will Play My Game Beneath The Spin Light tab

----------------------------------------------------------------------------
      I Will Play My Game Beneath The Spin Light - Brand New
-----------------------------------------------------------------------------
Tabbed by:Jordan Price
Email:jay112711@aim.com
NOTE:figure out the strumming yourself

Tuning:sstandard
when u mute the big E u can also not play it either whey works
                        DO ALL INTRO 4 TIMES

                               INTRO
e|-----0-------------0--------------0--------1-------3---------------------|
B|-----1-------------0--------------1--------1-------3---------------------|
G|-----2 X 12]-------0 X 12]-------0 X 12]---2 X 5]--0 X 5]----------------|
D|-----2-------------2--------------2--------3-------0---------------------|
A|-----0-------------2--------------3--------3-------2---------------------|
E|-----x-------------x--------------x--------1-------3---------------------|

                              CHORUS
e|-----1----------------1-----------1-----------------------------------|
B|-----1----------------1-----------1-----------------------------------|
G|-----5----------------2-----------4-----------------------------------|
D|-----5   X 15]--------3-X 15]-----5-----------------------------------|
A|-----1----------------3-----------5-----------------------------------|
E|-----1----------------1-----------1-----------------------------------|

e|---------------------------------------------------------------------------|
B|----------------------------------------------------------------1----1111--|
G|----------1-1-------------1-1-------------1-1-------------1-1---0----0000--|
D|----------2-2-----2-2-----2-2-----2-2-----2-2-----2-2-----2-2---2----2222--|
A|------x-x-2-2-x-x-2-2-x-x-2-2-x-x-2-2-x-x-2-2-x-x-2-2-x-x-2-2---3----3333--|
E|---------------------------------------------------------------------------|
                               DO THIS 4 TIMES
e|-----0-------------0-----------0--------1-------3---------------------|
B|-----1-------------0-----------1--------1-------3---------------------|
G|-----2 X 12]-------0 X 12]-----0 X 12]--2 X 5]--0 X 5]----------------|
D|-----2-------------2-----------2--------3-------0---------------------|
A|-----0-------------2-----------3--------3-------2---------------------|
E|-----x-------------x-----------x--------1-------3---------------------|
e|----------------------------------------------------------------------|

                               DO THIS 2 TIMES
e|-----1----------------1-----------1-----------------------------------|
B|-----1----------------1-----------1-----------------------------------|
G|-----5----------------2-----------4-----------------------------------|
D|-----5   X 15]--------3-X 15]-----5-----------------------------------|
A|-----1----------------3-----------5-----------------------------------|
E|-----1----------------1-----------1-----------------------------------|

                              use distortion here
e|---------------------------------------------------------------------------|
B|----------------------------------------------------------------1----1111--|
G|----------1-1-------------1-1-------------1-1-------------1-1---0----0000--|
D|----------2-2-----2-2-----2-2-----2-2-----2-2-----2-2-----2-2---2----2222--|
A|------x-x-2-2-x-x-2-2-x-x-2-2-x-x-2-2-x-x-2-2-x-x-2-2-x-x-2-2---3----3333--|
E|---------------------------------------------------------------------------|

                        SECOND BACKROUND GUITAR
E|----------0----0------0------0-0-------0-------0----0-0-----0------0----0--|
G|------------1-----1-3----3--------1-------1-3----3-------1----1-3----3-----|
D|---------------------------------------------------------------------------|
A|---------------------------------------------------------------------------|
E|---------------------------------------------------------------------------|
                               DO THIS 4 TIMES
e|-----0-------------0-----------0--------1-------3---------------------|
B|-----1-------------0-----------1--------1-------3---------------------|
G|-----2 X 12]-------0 X 12]-----0 X 12]--2 X 5]--0 X 5]----------------|
D|-----2-------------2-----------2--------3-------0---------------------|
A|-----0-------------2-----------3--------3-------2---------------------|
E|-----x-------------x-----------x--------1-------3---------------------|

                              use distortion here
e|---------------------------------------------------------------------------|
B|----------------------------------------------------------------1----1111--|
G|----------1-1-------------1-1-------------1-1-------------1-1---0----0000--|
D|----------2-2-----2-2-----2-2-----2-2-----2-2-----2-2-----2-2---2----2222--|
A|------x-x-2-2-x-x-2-2-x-x-2-2-x-x-2-2-x-x-2-2-x-x-2-2-x-x-2-2---3----3333--|
E|---------------------------------------------------------------------------|

                              do this two times
e|-----0-------------0-----------0--------1-------3---------------------|
B|-----1-------------0-----------1--------1-------3---------------------|
G|-----2 X 12]-------0 X 12]-----0 X 12]--2 X 5]--0 X 5]----------------|
D|-----2-------------2-----------2--------3-------0---------------------|
A|-----0-------------2-----------3--------3-------2---------------------|
E|-----x-------------x-----------x--------1-------3---------------------|

THAnks if you red this tab im a big fan of Brand New so i hope u enjoi!Rate me!


| /  slide up
| \  slide down
| h  hammer-on
| p  pull-off
| ~  vibrato
| +  harmonic
| x  Mute note
| X  Multiply strumming by
===============================================================================
Tap to rate this tab
 
# A B C D E F G H I J K L M N O P Q R S T U V W X Y Z