Song name
# A B C D E F G H I J K L M N O P Q R S T U V W X Y Z

Brand New - Untitled 02 tab

Tabbed By: Ryan Mentzos

* = palm mute
b = bend string
r = release bend
h = hammer on
p = pull off

PROGRESSION
Intro
Verse (2X)
Chorus
Intro + 2nd verse mini-solo part 1
Verse + 2nd verse mini-solo part 2
Verse
Chorus
Main Solo (2X) + Chorus (in the background, 1X)
Bridge + 2nd verse mini-solo part 1
Bridge
Chorus + Main Solo (2X in the background)
Verse (to fade out)


INTRO

---------9--------------------------9-----------------|
-------12--12---------------------12--12--------------|
------13------13-----------------13------13-----------|
--11-------------11----------11-------------11--------|
---------------------------0--------------------------|
9-----------------------------------------------------|
* *                        * *
---------9----------------------9~--------------------|
-------12--12-----------------12~---------------------|
------13------13-------------13~----------------------|
--11-------------11---------11~-----------------------|
---------------------------0~-------------------------|
9-----------------------------------------------------|
* *

VERSE

------------------------------------------------------|
--4----2----0----------4----2----5--------------------|
------------------------------------------------------|
------------------------------------------------------|
4----4----4----------0----0----0----------------------|
------------------------------------------------------|

---------------------0-0----0---4-0---0--0---0-9-0-0--|
--4----2----0----0-2---2--2---2-----2-0----0-------0--|
------------------------------------------------------|
------------------------------------------------------|
4----4----4-------------------------------------------|
------------------------------------------------------|


CHORUS

Lead guitar

------------------------------------------------------|
5--5--5-5--7--7--7-7-7--9--9---7--5--5--5-5-5-5-5-----|
6--6--6-6--8--8--8-8-8--9--9---8--6--6--6-6-6-6-6-----|
x--x--x-x--x--x--x-x-x--x--x---x--x--x--x-x-x-x-x-----|
4--4--4-4--6--6--6-6-6--7--7---6--4--4--4-4-4-4-4-----|
------------------------------------------------------|

------------------------------------------------------|
5--5--5-5--7--7--7-7-7--9--9--9-9-9-9-9-9-9-9-9-9-9-9-|
6--6--6-6--8--8--8-8-8--9--9--9-9-9-9-9-9-9-9-9-9-9-9-|
x--x--x-x--x--x--x-x-x--x--x--x-x-x-x-x-x-x-x-x-x-x-x-|
4--4--4-4--6--6--6-6-6--7--7--7-7-7-7-7-7-7-7-7-7-7-7-|
------------------------------------------------------|

------------------------------------------------------|
7--7--7-7--9--9--9-9-9--9--9---7--5--5--5-5-5-5-5-----|
6--6--6-6--8--8--8-8-8--9--9---8--6--6--6-6-6-6-6-----|
x--x--x-x--6--6--6-6-6--x--x---x--x--x--x-x-x-x-x-----|
6--4--4-4--6--6--6-6-6--7--7---6--4--4--4-4-4-4-4-----|
------------------------------------------------------|

------------------------------------------------------|
5--5--5-5--7--7--7-7-7--9--9--9-9-9-9-9-9-9-9-9-9-9-9-|
6--6--6-6--8--8--8-8-8--9--9--9-9-9-9-9-9-9-9-9-9-9-9-|
x--x--x-x--x--x--x-x-x--x--x--x-x-x-x-x-x-x-x-x-x-x-x-|
4--4--4-4--6--6--6-6-6--7--7--7-7-7-7-7-7-7-7-7-7-7-7-|
------------------------------------------------------|

Rhythm Guitar

------------------------------------------------------|
------------------------------------------------------|
------------------------9--9---8--6--6--6-6-6-6-6-----|
4--4--4-4--6--6--6-6-6--9--9---9--6--6--6-6-6-6-6-----|
4--4--4-4--6--6--6-6-6--7--7---6--4--4--4-4-4-4-4-----|
2--2--2-2--4--4--4-4-4--------------------------------|

------------------------------------------------------|
------------------------------------------------------|
------------------------9--9--9-9-9-9-9-9-9-9-9-9-9-9-|
4--4--4-4--6--6--6-6-6--9--9--9-9-9-9-9-9-9-9-9-9-9-9-|
4--4--4-4--6--6--6-6-6--7--7--7-7-7-7-7-7-7-7-7-7-7-7-|
2--2--2-2--4--4--4-4-4--------------------------------|

------------------------------------------------------|
------------------------------------------------------|
------------------------9--9---8--6--6--6-6-6-6-6-----|
4--4--4-4--6--6--6-6-6--9--9---9--6--6--6-6-6-6-6-----|
4--4--4-4--6--6--6-6-6--7--7---6--4--4--4-4-4-4-4-----|
2--2--2-2--4--4--4-4-4--------------------------------|

------------------------------------------------------|
------------------------------------------------------|
------------------------9--9--9-9-9-9-9-9-9-9-9-9-9-9-|
4--4--4-4--6--6--6-6-6--9--9--9-9-9-9-9-9-9-9-9-9-9-9-|
4--4--4-4--6--6--6-6-6--7--7--7-7-7-7-7-7-7-7-7-7-7-7-|
2--2--2-2--4--4--4-4-4--------------------------------|

2ND VERSE MINI-SOLO part 1

------------------------------------------------------|
------------------------------------------------------|
---------4---------------------2b--r-----1------------|
------------------------2--4--------------------------|
-----------------2-2h4--------------------------------|
------------------------------------------------------|

2ND VERSE MINI-SOLO part 2

---------------------------------11-------------------|
---------9-------------9h12b--r-----------------------|
------------------------------------------------------|
------------------------------------------------------|
------------------------------------------------------|
------------------------------------------------------|


MAIN SOLO

------------------------------------------------------|
------5--------5--7-------5--------5--0---------------|
4h6-66--664h6-6--6--4h6-66--664h6-6--6----------------|
------------------------------------------------------|
------------------------------------------------------|
------------------------------------------------------|

------------------------------------------------------|
------5--------7--7-------5---5555--------------------|
4h6-66--664h6-6--6--4h6-66--66-----6p4----------------|
------------------------------------------------------|
------------------------------------------------------|
------------------------------------------------------|

------------------------------------------------------|
------5--------5--7-------5--------5--0---------------|
4h6-66--664h6-6--6--4h6-66--664h6-6--6----------------|
------------------------------------------------------|
------------------------------------------------------|
------------------------------------------------------|

---4-p2p0---------0--4-p2p0---4-p2p0------------------|
0h2------2p0----2----------2--------2-----------------|
------------1h4---------------------------------------|
------------------------------------------------------|
------------------------------------------------------|
------------------------------------------------------|


BRIDGE

Lead guitar

----------------------------------------------------------------|
5-5-5-5-5-5-5-5-5-5-5-5-5-5-5-5-4-4-4-4-4-4-4-4-4-4-4-4-4-4-4-4-|
6-6-6-6-6-6-6-6-6-6-6-6-6-6-6-6-4-4-4-4-4-4-4-4-4-4-4-4-4-4-4-4-|
x-x-x-x-x-x-x-x-x-x-x-x-x-x-x-x-x-x-x-x-x-x-x-x-x-x-x-x-x-x-x-x-|
4-4-4-4-4-4-4-4-4-4-4-4-4-4-4-4-2-2-2-2-2-2-2-2-2-2-2-2-2-2-2-2-|
----------------------------------------------------------------|

----------------------------------------------------------------|
4-4-4-4-4-4-4-4-4-4-4-4-4-4-4-4-2-2-2-2-2-2-2-2-0-0-0-0-0-0-0-0-|
5-5-5-5-5-5-5-5-5-5-5-5-5-5-5-5-2-2-2-2-2-2-2-2-2-2-2-2-2-2-2-2-|
x-x-x-x-x-x-x-x-x-x-x-x-x-x-x-x-x-x-x-x-x-x-x-x-x-x-x-x-x-x-x-x-|
3-3-3-3-3-3-3-3-3-3-3-3-3-3-3-3-0-0-0-0-0-0-0-0-0-0-0-0-0-0-0-0-|
----------------------------------------------------------------|

Rhythm guitar

----------------------------------------------------------------|
----------------------------------------------------------------|
6-6-6-6-6-6-6-6-6-6-6-6-6-6-6-6-4-4-4-4-4-4-4-4-4-4-4-4-4-4-4-4-|
6-6-6-6-6-6-6-6-6-6-6-6-6-6-6-6-4-4-4-4-4-4-4-4-4-4-4-4-4-4-4-4-|
4-4-4-4-4-4-4-4-4-4-4-4-4-4-4-4-2-2-2-2-2-2-2-2-2-2-2-2-2-2-2-2-|
----------------------------------------------------------------|

----------------------------------------------------------------|
----------------------------------------------------------------|
----------------------------------------------------------------|
6-6-6-6-6-6-6-6-6-6-6-6-6-6-6-6-7-7-7-7-7-7-7-7-7-7-7-7-7-7-7-7-|
6-6-6-6-6-6-6-6-6-6-6-6-6-6-6-6-7-7-7-7-7-7-7-7-7-7-7-7-7-7-7-7-|
4-4-4-4-4-4-4-4-4-4-4-4-4-4-4-4-5-5-5-5-5-5-5-5-5-5-5-5-5-5-5-5-|
Tap to rate this tab
# A B C D E F G H I J K L M N O P Q R S T U V W X Y Z