Song name
# A B C D E F G H I J K L M N O P Q R S T U V W X Y Z

Brand New - Untitled 04 tab

Song: Untitled Demo 04
Artist: Brand New
Tuning:Standard

This song is pretty simple. I didn't indicate the right strumming pattern but you'll get the idea.
If anyone can help with the lead, please leave it in the comments!

Bass Intro:

G----------------------|
D----------------------|
A--------2-------------|
E--2--0------2---------|

Chorus:
e|----------------------------------------------------------------------|
B|----------------------------------------------------------------------|
G|-----------------7-7-7--4-4-4-4---------------------------------------|
D|---7-7-7--4-4-4--7-7-7--4-4-4-4---------------------------------------|
A|---7-7-7--4-4-4--5-5-5--2-2-2-2---------------------------------------|
E|---5-5-5--2-2-2-------------------------------------------------------|

Bass Verse:
G-----------------------------------------------|
D-----------------------------------------------|
A----------------2-4-5-4------------------------|
E--2~--4-2-0-2-4---------2-4-5-4----------------|

Chorus

Little Break: (Play however many times is necessary)
e|-------------------------------------------------------------------------|
B|-------------------------------------------------------------------------|
G|--2~-------4--3--2-------------------------------------------------------|
D|--2~-------4--3--2-------------------------------------------------------|
A|--0~-------2--1--0-------------------------------------------------------|
E|-------------------------------------------------------------------------|

Chorus


Little Break
Tap to rate this tab
 
# A B C D E F G H I J K L M N O P Q R S T U V W X Y Z