Song name
# A B C D E F G H I J K L M N O P Q R S T U V W X Y Z

Brand New - Untitled 06 tab

-------------------------------------------------------------------------------
			     Untitled 6 - Brand New
-------------------------------------------------------------------------------
Tabbed by:Wade Abdule Jabar
Email:

Tuning: 1/2 Step Down

Verse:
e|---------------------------------------------------------------------------|
B|------2------2------2------2-----------------------------------------------|
G|----3--3---3--3---3--3---3--3----------------------------------------------|
D|---3-3----3-3----3-3----3-3------------------------------------------------|
A|--2------3------4------2---------------------------------------------------|
E|---------------------------------------------------------------------------|

Chorus:
e|---------------------------------------------------------------------------------|
B|------5------6------5------------------------------------------------------------|
G|----6------6--6---6--6-----------------------------------------------------------|
D|---6-6----6-6----6-6-------------------------------------------------------------|
A|--5------5------5----------------------------------------------------------------|
E|---------------------------------------------------------------------------------|

Last Verse:
Guitar 1
e|----------------------|
B|---3-3p0-3-3p0-3-3p0--|
G|----------------------|
D|----------------------|
A|----------------------|
E|----------------------|

Working on Vin's effects at the end of the song but not there yet so hold tight!

| /  slide up
| \  slide down
| h  hammer-on
| p  pull-off
| ~  vibrato
| +  harmonic
| x  Mute note
===============================================================================
Tap to rate this tab
 
# A B C D E F G H I J K L M N O P Q R S T U V W X Y Z