Song name
# A B C D E F G H I J K L M N O P Q R S T U V W X Y Z

Brand New - Untitled 05 tab

nobody bothered to tab this. so i did. because brand new owns.
most of its right on with the song. the power chorded parts seem a little iffy to me but 
work okay. email me with any suggestions. jtaylorharris@yahoo.com


Intro
Eb---0-0-0----0-0-----------------------0-0-0-0-----------|
Bb---0h2-3----3-3--5h3h0-3h2h0-3h2h0---0-0-0-0------------|
Gb---0-0-0----0-0-----------------------4-4-4-4-----------|
Db--------------------------------------------------------|
Ab--------------------------------------------------------|
Eb--------------------------------------------------------|


Verse
Eb------------------------------------------2p0-------------2--|
Bb-----------------------------------------------------------0-|
Gb--------------------------------6-6----6--------6-6----6-----|
Db----0-0----0-0----0-0----0-0--4-4-4--4-4------4-4-4--4-4-----|
Ab---4-4-4--4-4----4-4-4--4-4--2------2--------2------2--------|
Eb--2------2------2------2-------------------------------------|

thing between verses "Tear you up, Take what you love.."
Eb--9------12-----------------9-----------------------------------|
Bb----10------10---------9-10---10-9------------------------------|
Gb-------9-------9----11------------------------------------------|
Db----------------------------------------------------------------|
Ab----------------------------------------------------------------|
Eb----------------------------------------------------------------|

Chorus  "Weighing the cost's of the love you made.."
Eb----------------------------------------------------------------|
Bb----------------------------------------------------------------|
Gb-----9----------------------------------------------------------|
Db--7--9--2-------------------------------------------------------|
Ab--7--7--2-------------------------------------------------------|
Eb--5-----0-------------------------------------------------------|

Guitar 2 Chorus
Eb---------------------------------------------------------------|
Bb---------------------------------------------------------------|
Gb-5------9--/--13-----------------------------------------------|
Db-x------x--/---x-----------------------------------------------|
Ab-3------7--/--11-----------------------------------------------|
Eb---------------------------------------------------------------|

"breathing the part...sinkng our teeth into..?"
Eb--------------------------------------------------------|
Bb--------------------------------------------------------|
Gb--------------------------------------------------------|
Db--------------------------------------------------------|
Ab--------------------------------------------------------|
Eb---5-8-13-12--5-8-3-1-----------------------------------|

"break all the locks..."
Eb--------------------------12-11-14-12-14-9-11-----------|
Bb--10-9-12-10-12-10-7-9----10-9--12-10-10-7-9------------|
Gb--------------------------------------------------------|
Db--------------------------------------------------------|
Ab--------------------------------------------------------|
Eb--------------------------------------------------------|

"please cut me up.." (part from above is played over this)
Eb----------------------------------------------------------|
Bb----------------------------------------------------------|
Gb----------------------------------------------------------|
Db----7-x-7-x-7-x-7-----------------------------------------|
Ab----7-x-7-x-7-x-7-----------------------------------------|
Eb----5-x-5-x-5-x-5-----------------------------------------|

Breakdown thing
Eb------------------------------------------------------------------|
Bb------------------------------------------------------------------|
Gb------------------------------------------------------------------|
Db---------2-3-2--------2-3-2--------2-3-2--------2-3-2-------------|
Ab---0-0-3--------0-0-3--------0-0-3--------0-0-3-------------------|
Eb------------------------------------------------------------------|

Eb------------------------------------------------------------------|
Bb------------------------------------------------------------------|
Gb------------------------------------------------------------------|
Db------2-3-5-3-------2-3-5-3-----2-3-5-3--------2-3-5-3------------|
Ab------------------------------------------------------------------|
Eb--0-0-----------0-0---------0-0----------0-0-3--------------------|

Eventually this is played up high like so:
Eb----------12-13-12-------------12-13-15-13----------------------|
Bb-------13-------------------------------------------------------|
Gb--14-14---------------------------------------------------------|
Db-------------------------14-14----------------------------------|
Ab----------------------------------------------------------------|
Eb----------------------------------------------------------------|

thats about all of the component parts i could pick out
i am horrible at it though so any help is appreciated
Tap to rate this tab
# A B C D E F G H I J K L M N O P Q R S T U V W X Y Z