Song name
# A B C D E F G H I J K L M N O P Q R S T U V W X Y Z

Brand New - Untitled 07 tab

----------------------------------------------------------------------------
			     Untitled 7 - BrandNew
----------------------------------------------------------------------------
Tabbed by: giunta

Tuning: standard

e|-------6------------------------------------------------------------------|
B|----------9--7------7--9--7-----7--9--9--7------------7-----7--9-9--7-----|
G|----------------6------------6--------------8---6--8-----6-------------8--|
D|--------------------------------------------------------------------------|
A|--------------------------------------------------------------------------|
E|-4/6----------------------------------------------------------------------|

e|--------------------------------------------------------------------------|
B|-------7------------------------------------------------------------------|
G|-6--8---------6--8-----6--8-----------------------------------------------|
D|-----------8--------8------------------------(x2)-------------------------|
A|--------------------------------------------------------------------------|
E|--------------------------------------------------------------------------|

this song wasn't on here so i tabbed it best i could. its pretty close, listen to the 
for the timing
Tap to rate this tab
# A B C D E F G H I J K L M N O P Q R S T U V W X Y Z