Song name
# A B C D E F G H I J K L M N O P Q R S T U V W X Y Z

Brand New - Sowing Season Yeah tab

Okay, so I decided to figure out Jesse's chorus and bridge part for this song since the 
parts on this site are basically right on, the verses on here were all right

Verse1:
e|------------------------------------------------------------------|
B|------------------------------------------------------------------|
G|------------------------------------------------------------------|
D|---5-5-5-5-5-5-(0)------------------------------------------------|
A|---7-7-7-7-7-7-(0)-5-5-5-5-5-5-(0)-7-7-7-7-7-7-5-5-5-5-5-5--------|
E|-------------------7-7-7-7-7-7-(0)-5-5-5-5-5-5-3-3-3-3-3-3--------|

okay we all know that part and how many times, plus palm mute it a little bit^


Chorus:
e|-----------------------------------|
B|-----------------------------------|
G|--999999---------------------------|
D|--999999-999999-777777-555555------|
A|--777777-999999-777777-555555------|
E|---------777777-555555-333333------|

e|-----------------------------------|
B|-----------------------------------|
G|--999999---------------------------|
D|--999999-999999-777777-555555------|
A|--777777-999999-777777-555555------|
E|---------777777-555555-333333------|

e|-----------------------------------|
B|-----------------------------------|
G|--999999---------------------------|
D|--999999-999999-555555-777777------|
A|--777777-999999-555555-777777------|
E|---------777777-333333-555555------|

e|-----------------------------------|
B|-----------------------------------|
G|--999999---------------------------|
D|--999999-999999-777777-555555------|
A|--777777-999999-777777-555555------|
E|---------777777-555555-333333------|

In between verses:
e|-----------------------------------|
B|-----------------------------------|
G|-----------------------------------|
D|-----------------------------------| X2
A|---7~------------------------------|
E|--------7~---5~---3~---------------|

Second verse really has no rythym guitar but you can fill in again with verse one

then

Chorus:
e|-----------------------------------|
B|-----------------------------------|
G|--999999---------------------------|
D|--999999-999999-777777-555555------|
A|--777777-999999-777777-555555------|
E|---------777777-555555-333333------|

e|-----------------------------------|
B|-----------------------------------|
G|--999999---------------------------|
D|--999999-999999-777777-555555------|
A|--777777-999999-777777-555555------|
E|---------777777-555555-333333------|

e|-----------------------------------|
B|-----------------------------------|
G|--999999---------------------------|
D|--999999-999999-555555-777777------|
A|--777777-999999-555555-777777------|
E|---------777777-333333-555555------|

e|-----------------------------------|
B|-----------------------------------|
G|--999999---------------------------|
D|--999999-999999-777777-555555------|
A|--777777-999999-777777-555555------|
E|---------777777-555555-333333------|

Bridge:
e|--------------------------------|
B|--------------------------------|
G|-------------5------------------|
D|--9-----7----5-x12-5----5-------| X2
A|--9-x12-7-x6-3-----5-x6-5-x6----|
E|--7-----5----------3----2-------|

Then:
e|-----------------------------------|
B|-----------------------------------|
G|-----------------------------------|
D|-----------------------------------| X4
A|---7~------------------------------|
E|--------7~---5~---3~---------------|

e|---------------------------------------------------------------|
B|---------------------------------------------------------------|
G|---------------------------------------------------------------|
D|---5-5-5-5-5-5-(0)---------------------------------------------| X2
A|---7-7-7-7-7-7-(0)-5-5-5-5-5-5-(0)-7-7-7-7-7-7-5-5-5-5-5-5-----|
E|-------------------7-7-7-7-7-7-(0)-5-5-5-5-5-5-3-3-3-3-3-3-----|

     Do you miss the blend....^

e|---------------------------------------------------|
B|---------0-----------0-----------0-----------0-----|
G|-----0-----0-----0-----0-----0-----0-----0-----0---|
D|---5---5-------5---5-------5---5-------5---5-------| X2
A|-7-----------5-----------3-------------------------|
E|-------------------------------------7-------------|

     I am not you friend!....^

Chorus:
e|-----------------------------------|
B|-----------------------------------|
G|--999999---------------------------|
D|--999999-999999-777777-555555------|
A|--777777-999999-777777-555555------|
E|---------777777-555555-333333------|

e|-----------------------------------|
B|-----------------------------------|
G|--999999---------------------------|
D|--999999-999999-777777-555555------|
A|--777777-999999-777777-555555------|
E|---------777777-555555-333333------|

e|-----------------------------------|
B|-----------------------------------|
G|--999999---------------------------|
D|--999999-999999-555555-777777------|
A|--777777-999999-555555-777777------|
E|---------777777-333333-555555------|

e|-----------------------------------|
B|-----------------------------------|
G|--999999---------------------------|
D|--999999-999999-777777-555555------|
A|--777777-999999-777777-555555------|
E|---------777777-555555-333333------|

Then:
e|------------------x-x------------------|
B|------------------x-x------------------|
G|-------------5~---x-x------------------|
D|--9-----7----5~---x-x----9----5-----7~-|
A|--9-x12-7-x6-3~---x-x----9-x6-5-x6--7~-|
E|--7-----5---------x-x----7----3-----5~-|

^ Hit the C power chord on "Grow", then scratch on "Before", then hit the B power chord 
"Comin" to an end, yeeeeaaaah

I think thats it, if you find anything wrong with it, which there probly is cuz i did it 
just leave a comment, ill get back on here and fix it
Tap to rate this tab
# A B C D E F G H I J K L M N O P Q R S T U V W X Y Z