Song name
# A B C D E F G H I J K L M N O P Q R S T U V W X Y Z

Brand New - You Wont Know Live tab

-------------------------------------------------------------------------------
		   You Won't Know (live) -- Brand New
-------------------------------------------------------------------------------
Tabbed by: glazeglaze

Tuning: dropped half step

K, I have a crappy live recording of this song and it sounds something like this: 

eb|-----------------------------------------|
Bb|------8p7------7h8-------8p7------7h8p7--|
Gb|--9-9------9-9-------9-9------9-9--------|
Db|-----------------------------------------|
Ab|-----------------------------------------|
Eb|-----------------------------------------|

eb|-----------------------------------------|
Bb|------8p7-------7h8--------8p7-----7h8p7-|
Gb|-----------------------------------------|
Db|--10-10----10-10-----10-10----10-10------|
Ab|-----------------------------------------|
Eb|-----------------------------------------|

Just mess around with stuff like that -- if you play around you'll get it.
I changed my original tab b/c it was way off.

--Thanks
Tap to rate this tab
# A B C D E F G H I J K L M N O P Q R S T U V W X Y Z